a b c d e f g h i j k l m n o p q r s t u v w x y z 0-9

Desde Lejos No Se Ve

Los Piojos

			
Intro
G|----------------|x4
D|--4---7---6-----|
A|-5-5-8-8-7-7----|
E|-------------55-|

 |------------------------------------|x4
 |------------------------------------|
 |------------------------------------|
 |-3-2-3-1-3--2-3-1-3--2-3-1-3--2-3-1-|

Verso y Coros
G|------------------------------------|x4
D|------------------------------------|
A|------------------------------------|
E|-3-2-3-1-3--2-3-1-3--2-3-1-3--2-3-1-|

Puente Ah ah ah ah eh... **4 veces**
G|------------------------------------|
D|------------------------------------|
A|------------------------------------|
E|-3-2-3-1-3--2-3-1-3--2-3-1-3--2-3-1-|

 |-----------------------------------------|
 |-----------------------------------------|
 |-----------------------------------------|
 |-1-0-1-0-1-0-1-0-1--3-2-3-1-3--2-3-1-3-1-|

Escuchá la canción para saber el ritmo

Fuente original ATAME [www.atame.org]
Colaborador original: Sebastián Vidondo [rojoamargodelsiglo@yahoo.com.ar]

Fuente: tusacordes.com