a b c d e f g h i j k l m n o p q r s t u v w x y z 0-9

Cruel

Los Piojos

			
Intro
G|------------------------|x4
D|------------------------|
A|-55---555---555---555---|
E|----3-----3-----3-----3-|

Verso
G|-------------------------------------|x2
D|-------------------------------------|
A|----------------------------5-5x12-|
E|-3-3x12-1-1x12-6-6x12----------|

Coro
G|-------------------------------------|x2
D|-------------------------------------|
A|----------------------------5-5x12-|
E|-3-3x12-1-1x12-6-6x12----------|

Intro
G|------------------------|x4
D|------------------------|
A|-55---555---555---555---|
E|----3-----3-----3-----3-|

Verso
G|-------------------------------------|x2
D|-------------------------------------|
A|----------------------------5-5x12-|
E|-3-3x12-1-1x12-6-6x12----------|

Coro
G|-------------------------------------|x2
D|-------------------------------------|
A|----------------------------5-5x12-|
E|-3-3x12-1-1x12-6-6x12----------|

Intro
G|------------------------|x8
D|------------------------|
A|-55---555---555---555---|
E|----3-----3-----3-----3-|

Verso
G|-------------------------------------|x2
D|-------------------------------------|
A|----------------------------5-5x12-|
E|-3-3x12-1-1x12-6-6x12----------|

Coro
G|-------------------------------------|x6
D|-------------------------------------|
A|----------------------------5-5x12-|
E|-3-3x12-1-1x12-6-6x12----------|

Escuchá la canción para saber el ritmo

Fuente original ATAME [www.atame.org]
Colaborador original: Sebastián Vidondo [rojoamargodelsiglo@yahoo.com.ar]

Fuente: tusacordes.com