a b c d e f g h i j k l m n o p q r s t u v w x y z 0-9

Cruces Y Flores

Los Piojos

			
Bueno, miembros de "TusAcordes" estube viendo los temas de los piojos y vi que les faltaba el solo de Cruces y Flores.
Espero que les guste, lo saque de oido, esta perfecto.
cualquier duda contacten a enzo_92@hotmail.com

b: Levantar cuerda hasta "x" tono.
/: deslizar cuerda hasta "x" tono.
h: montar sobre tono anterior.
p: retirar dedo sobre "x" tono.



|-----------------------------------------------------|
|-----------------------------------------------------|
|-12h14-12h14-12h14-12-------------------------12-----|
|----------------------12-10-12-10----10-12b13----10--|
|----------------------------------12-----------------|
|-----------------------------------------------------|


|---------------------|---------------------------|
|---------------------|---------------------------|
|---------------------|----------9-12p9-11p9----9-|
|---------------------|----10-12-------------12---|
|-12p10----10h12-10-9-|-12------------------------|
|-------12------------|---------------------------|

|-------------------------------------------|
|-------------------------------------------|
|-------12----------------------------------|
|-12/14----12/10-12-12b13b12-10----10-12b13-|
|-------------------------------12----------|
|-------------------------------------------|

Parte extremadamente rapida....
|-----------------------------------------------------------|
|----------13-----------------------------------------------|
|-14-12-------14-12-14-12-----------------------------------|
|-------14----------------14-12----------------12b13b12b13--|
|-------------------------------15-12----12-15--------------|
|-------------------------------------14--------------------|

|------------------------------------------------------------|
|------------------------------------------------------------|
|-12---------------------------------------------------------|
|----10-0----10-12b13b12----10-12-10-0-------------------|
|-----------12-------------12--------------12p10----10-12-10-|
|------------------------------------------------12----------|

|----------------------------------|
|----------------------------------|
|----------------------------------|
|----------------------------------|
|----------------------------------|
|-10b11-11-11-11-11-11b10-8--8-0-|

|-------------------------------------------------------------------|
|-----------------13-15-13-0--------------------------------------|
|-14-14-14-0-14--------------12b14-14-12--------------------------|
|------------------------------------------12-12-12-12b13b12-10-0-|
|-------------------------------------------------------------------|

termina con un....

2da|-18b20b18b20---|

Suerte!!!

Fuente: tusacordes.com