a b c d e f g h i j k l m n o p q r s t u v w x y z 0-9

Como Ali

Los Piojos

F
Gm
G
E
C#
C
Bb
Am
Dm
G#m
C#m
A
B
			
 Como Alí

Todo con ritmo de ska doble
*esta canción se puede tocar todo el tiempo en sol menor, 
o tambien para que quede mejor se le puede agregar el F 
que esta entre paréntesis...
para tocar solo con una criolla es lo mas recomendable...

        Riff X 2
1º/ mi |--------------------------------------------------|
2º/ Si |--------------------------------------------------|
3º/ Sol|--------------------------------------------------|
4º/ Re |--------------------------------------3--2--3-----|
5º/ La |--------3--5----------3--5---------3-----------5--|
6º/ Mi |--3--6----------3--6---------3--6-----------------|

Gm   
Es la nueva sensación, la nueva generación,
*[F]        G 
Es un salto, es un frenesí. 
Gm
Rebotando por doquier, de la villa hasta Blaquier
[F]               Gm
Soy Jacobo Flash, el saltarín.

Hay un bombo criminal, un relámpago virtual,
Hay enanos corriendo por ahí.
Hay mujeres que no son, dealer pifia su poción,
Y yo recién llegado, de Chajarí.
Rebotín rebotán, de la vera vera land
De la pista a la cabina cuántos bichos tiene encima...
Tengo los dedos supersensitivos
Tengo los ojos de Darín.

F                               Gm
Y en esta danza soy rey sin corona
F                               Gm
Y en esta danza que no tiene fin,
F                       E 
Yo voy saltando sin par, voy a quedar
C#                C
Voy a quedar como Alí.

Gm
Que esta mina me buscó, que esta mina me encontró,
[F]                  Gm
Que esta mina no me quiere dejar, 
Gm
y no entiendo que hay en mí, yo no sé que pasa aquí, 
[F]                Gm
solamente dejenme mirar

y yo casi soy doctora, y no duermo ni una hora
a veces veo al bisabuelo con Dorrego, en la cocina, 
y  yo soy clop, el nuevo chico top,
arranco el miércoles saliendo, de la oficina.

F                              Gm
Y todo el mundo saltando contento,
F                              Gm
Porque allá afuera te espera el país,
F                       E 
Y yo me elevo al compás, d.j. sin paz
C#              C
Y desde acá veo Berlín.

Y todo el mundo saltando contento,
Porque allá afuera te espera el país,
Y yo me elevo al compás, d.j. sin paz
Y desde acá veo Berlín.

Y en esta danza soy rey sin corona
Y en esta danza que bailo en un ring...
Yo voy saltando sin par, voy a quedar
Voy a quedar como Alí.


Coro: usa el riff
Emborrachar
Mi corazón,
Y rebotar
Quiero yo.
 
Bueno espero que les sea fácil sacar este tema cualquier 
duda manden un mail a mi dire, aguante Los Piojos, 
que hicieron un muy buen disco...
Saludos a todos mis amigos de mi querido pueblito 
del sur de Santa Fe, mi Sancti Spíritu del alma, 
y a todos los que alguna ves "atormente" 
aturdiendo con mi guitarra...
Dany F.
EL_FLACO


Aparte
Base:

G|---------------5-------------------------------4------|
D|-5-5-----5-4-3---3---------2-2-3-4-5-5-0-0-4h5--------|
A|-----5-5-----------5-4-3-3----------------------------|
E|------------------------------------------------------|


Estribillo [La parte de: 'Salta la cuerda...'

G|---------------------------555-5----------------------|
D|----555-5-------333-3-----5---5-------555-5-----------|
A|---5---5-------3---3----33-----------5---5------------|
E|-33----------11--------------------33-----------------|

Eso es todo, si tienen alguna duda manden un mail.
Chau
Por que es tan cruel el amor
intro


E----------------------------------------------
A----------------------------------------------
D----------------------------------------------
G----------------------------------------------
B----------------------------------------------
e--7-9-10-10s12-12-10-10-9-9-7-7s9-------------


E----------------------------------------------
A----------------------------------------------
D----------------------------------------------
G----------------------------------------------
B----------------------------------------------
e--7-9-10-10s12-12-10-10-9-9-7-7-5-------------


a mediados de la canción


E----------------------------------------------
A----------------------------------------------
D----------------------------------------------
G----------------------------------------------
B----------------------------------------------
e--4-5-7-7-9-10-10s12-12-10-10-9-9s10-7-7s9----


E----------------------------------------------
A----------------------------------------------
D----------------------------------------------
G----------------------------------------------
B----------------------------------------------
e--7-9-10-10s12-12-10-10-9-9-7-7-5-------------


la parte final


E----------------------------------------------
A----------------------------------------------
D----------------------------------------------
G----------------------------------------------
B----------------------------------------------
e--5-7-9-10-10s12-12-10-10-9-9-7-7s9-----------


E----------------------------------------------
A----------------------------------------------
D----------------------------------------------
G----------------------------------------------
B----------------------------------------------
e--7-9-10-10s12-12-10-10-9-9-7-7-5-------------


E----------------------------------------------
A----------------------------------------------
D----------------------------------------------
G----------------------------------------------
B--2-3-5---------------------------------------
e--------4-5-7-7-9-10s12-12s14-12-12-10-10-9---


E----------------------------------------------
A----------------------------------------------
D----------------------------------------------
G----------------------------------------------
B----------------------------------------------
e--7-7s9-9-9-9---------------------------------


E----------------------------------------------
A----------------------------------------------
D----------------------------------------------
G----------------------------------------------
B----------------------------------------------
e--7-9-10-10s12-12-10-10-9-9-7-7-5-------------


E----------------------------------------------
A----------------------------------------------
D----------------------------------------------
G----------------------------------------------
B--2-3-5-2-3-5---------------------------------
e--------------4-5-7-4-5-7-7-9-10--------------


E----------------------------------------------
A----------------------------------------------
D----------------------------------------------
G----------------------------------------------
B----------------------------------------------
e--7-9-10-10s12-12s14-12-10-9-9-7-7-5----------


Por que es tan cruel ele amor
  F                   C
Me tomo un café con tu ausencia
  Bb                F
Y le enciendo un cigarro a la nostalgia
                      C           Bb      F
le doy un beso en el cuello a tu espacio vacío
    F                        C
me juego un ajedrez con tu historia

         Bb                    F
y le acaricio la espalda a la memoria
               C               Bb       F
seduciendo a un par de zapatos azules que olvidaste
     F        Am           Dm        F
y charlo de política con tu cepillo de dientes
    F          Am
con visión tan analítica
 FAb               C
como cuando te arrepientes

                        F
Realmente no estoy tan solo
   C                 Dm
quien te dijo que te fuiste
 Bb                    C      Am         Dm
si aun te encuentro cocinando algún recuerdo en la cocina
   Bb                        C
o en la sombra que dibuja la cortina.

                 F
Realmente no estoy tan solo
      C             Dm
quien te dijo que te fuiste
           Bb        C
si uno no esta donde el cuerpo
       Am         Dm
sino donde mas lo extrañan
        Bb        C
y aquí se te extraña tanto
      F         C      Dm
tu sigues aquí, sin ti, conmigo
   Bb
quien esta contigo
 C             F
si ni siquiera estas tu.

                         C
Platico con tus media de seda
       Bb                  F
y le preparo un croissant al recuerdo
         C            Bb    F
mientras me rasco una rodilla a esta vida sin vida
               C
le canto una canción a la nada
   Bb            F
y me burlo de la melancolía
          C     Bb       F
mientas subo el cierre a la falda de las ganas
   C            Dm
sintiendo estas cosas
   Bb         F
realmente no estoy tan solo
               C      Dm
sola tu que estas conmigo
     Bb         C
y no te fuiste contigo

                       F
Realmente no estoy tan solo
                 C    Dm
quien te dijo que te fuiste
   Bb                  C
si aun te encuentro cocinando
         Am        Dm
algún recuerdo en la cocina
     Bb                    C
o en la sombra que dibuja la cortina

                       F
Realmente no estoy tan solo
          C          Dm
quien te dijo que te fuiste
  Bb                 C
si cargaste con el cuerpo
        Am       Dm
pero no con el recuerdo
    Bb               C
y el recuerdo esta conmigo

                       F
Realmente no estoy tan solo
   C                 Dm
quien te dijo que te fuiste
  Bb           Dm
si uno no esta donde el cuerpo
 Am            Dm
sino donde mas lo extrañan
              Bb     C
y aquí se te extraña tanto

       F
Tu sigues aquí
 C        Dm
sin ti, conmigo
 Bb
quien esta contigo
   C         F
si ni siquiera estas tu......



INTRO

      E                       G#m     C#m                 A          B           A 
e|----4-4-4-4-4-4--4-2-0-2-4---7-7-7-7-7-7-4-11p12-11-----------------------------|
B|-----------------------------------------------------12-9----------9-7-5-7-5-4-2|
G|--4-------------------------------------------------------9-11-6-8--------------|
D|--------------------------------------------------------------------------------|
A|--------------------------------------------------------------------------------|
E|--------------------------------------------------------------------------------|

 
E                  B          A 
Si ayer tuviste un día gris, tranquila,
           B           E
yo haré canciones para ver
                  B      A 
si así consigo hacerte sonreír.
E                     B      A 
Si lo que quieres es huir, camina,
           B            C#m
yo haré canciones para ver
                  B           A 
si así consigo fuerzas pa´ vivir.
E                B           A 
No tengo más motivos para darte
          B           C#m
que este miedo que me da
                 G#m        A 
el no volver a verte nunca más. 

Fuente: Lacuerda