a b c d e f g h i j k l m n o p q r s t u v w x y z 0-9

Como Ali

Los Piojos

			
esta es la tablatura verdadera!!! el que tenga alguna correccion que la mande. un saludo para los cadeninyas!!!!!

INTRO Y VERSO X10
G|-----------------|-----------------|
D|---------5-------|----------785----|
A|-------5---5-----|-------55--------|
E|-3-5-6-------653-|-1-3-5-------653-|

ESTRIBILLO
G|-------------------|------------------|
D|---3---33-5---5-32-|---3---33-5---5-4-|
A|-3---3------5------|-3---3------5-----|
E|-------------------|------------------|

G|---------------------------------|
D|3-3-3-3--------------------------|
A|--------7-7-7-7-6-6-6-6-55555555-|
E|---------------------------------|

VERSO X4

CORTE1
G|-------------------------|-------------------------|
D|-------------------------|-------------------------|
A|-------------------------|-------------------------|
E|-3-3-3-3-3-3-1-1-1-3-3-3-|-3-3-3-3-3-3-1-1-1-3-3-3-|

ESTRIBILLO

CORTE 2 HACE DOS VUELTAS SIN BAJO Y DESPUES ARRANCA CON PEDAL QUE PUEDE SER UN FLANGER
G|---------------------|
D|---------------------|
A|-3--5--3--5--3-------|
E|---------------7-6-5-|

ESTRIBILLO

CORTE 3
G|-------------------|------------------|
D|---3---33-5---5-32-|---3---33-5---5-4-|
A|-3---3------5------|-3---3------5-----|
E|-------------------|------------------|

G|---------------------------------|----------------------------------------|
D|3-3-3-3--------------------------|----------------------------------------|
A|--------7-7-7-7-6-6-6-6-55555555-|55555555-55555555-5555555171717171717/-|
E|---------------------------------|----------------------------------------|

VERSO X3

FINAL
G|-----------------|---------------|
D|---------5-------|----------5555-|
A|-------5---5-----|-------55------|
E|-3-5-6-------653-|-1-3-5---------|

Fuente original ATAME [www.atame.org]
Colaborador original: Néstor Rodolfo Rohrer [r_skaba@hotmail.com]

Fuente: tusacordes.com