a b c d e f g h i j k l m n o p q r s t u v w x y z 0-9

Como Ali

Los Piojos

			
Esta muy bien sacado che!!!

Intro y verso x 10
|----------------|----------------|----------------|--3-------------|
|----------------|5---------------|----------------|5---5-----------|
|------------5---|----5-----------|----0---3---0---|--------5-------|
|3---5---6-------|--------6-5-3---|1-------------1-|----------6-3---|

Estribillo x 1
|--------5-------|----------------|--------5-------|----------------|
|----2------2-3--|5-------5-------|----2-------2-3-|5-------5-----5-|
|3---------------|----5-------5-4-|3---------------|----5-------5---|
|----------------|----------------|----------------|----------------|

|----------------|----------------|----------------|----------------|
|3---3---3---3---|2---2---2---2---|1---1---1---1---|0---0---0---0---|
|----------------|----------------|----------------|----------------|
|----------------|----------------|----------------|----------------|

Verso x 4
|----------------|----------------|----------------|--3-------------|
|----------------|5---------------|----------------|5---5-----------|
|------------5---|----5-----------|----0---3---0---|--------5-------|
|3---5---6-------|--------6-5-3---|1-------------1-|----------6-3---|

Esta parte del verso x 2
|----------------|----------------|----------------|----------------|
|----------------|----------------|----------------|----------------|
|----------------|----------------|----------------|----------------|
|3----3------3---|3---3-------3---|1---1-------1---|1---1-------1---|

Intermedio no se toca nada

Estribillo x 2

Verso x 3

Final x 1
|----------------|----------------|----------------|----------------|
|----------------|5---------------|----------------|----------------|
|------------5---|----5-----------|----0---3---0---|----------------|
|3---5---6-------|--------6-5-3---|1-------------1-|3-3-3-3---------|

Fuente original ATAME [www.atame.org]
Colaborador original: mariano alvarez [marnibal@hotmail.com]

Fuente: tusacordes.com