a b c d e f g h i j k l m n o p q r s t u v w x y z 0-9

Civilizacion

Los Piojos

			
En total el tiempo es dos negras y una blanca
las negras estan representas asi 1 y las blancas asi 2

Tablatura 
    11 2 
1--------------
2-------1------
3----2------2--
4--------------
5--------------
6--------------

   1 1  2
1---------------
2------1----1---
3---2-----------
4---------------
5---------------
6---------------

  1 1 2
1---------------
2-----0---------
3--0-----2------
4---------------
5---------------
6---------------

Y el acompañamiento es igual son dos negras y una blanco en cada acorde osea hacen dos negras y una blanca en cada acorde y pasan al siguiente

Los Acordes Son :


Lam   Rem  Do  Sol

Fuente: tusacordes.com