a b c d e f g h i j k l m n o p q r s t u v w x y z 0-9

Chac Tu Chac

Los Piojos

			
INTRO y ESTROFAS

G|---------------------| Las veces que repite esta fórmula 
D|---------------------| varian según cada parte del tema
A|---3---3---3---------|
E|-5---5---5---3-3-4-4-|


ESTRIBILLO

G|-----------| x4
D|-----------|
A|-----------|
E|-5-5-5-3-4-|


La parte que dice El rey es rey porque baila... es asi:

G|------------------------------------------------------------------|
D|---3---3---3-------------------------------3---3---3--------------|
A|-5---5---5---3-3-4-4---3---3---3---------5---5---5---5-5-6-6-7 x8-|
E|---------------------5---5---5---3-3-4-4--------------------------|


El corte:

G|-----------------------------------------------|
D|-----------------------------------------------|
A|-----------------------------------------------|
E|-0-3-4-5----0-3-4-5----0-3-4-5-5-4-4-3-3-2-2-1-|


En el final va haciendo la base pero cuando toca el A lo alterna con la octava.

Fuente original ATAME [www.atame.org]
Colaborador original: FeDeBaJiS [fede_lineae@yahoo.com]

Fuente: tusacordes.com