a b c d e f g h i j k l m n o p q r s t u v w x y z 0-9

Chac Tu Chac

Los Piojos

A
			
INTRO RIFF

RIFF:
     A                     G
e|-------------------------------|
B|-------------------------------| asi sucesivamente..
G|---5---5---5---5---5---5---5---|
D|-7---7---7---7---7---7---5---6-|
A|-------------------------------|
E|-------------------------------|

RIFF
   Si vos queres estar libre
si queres alto volar
no dejes que te den el tiro
cuando empezas a aletear

RIFF
   Si vos queres estar libre
cuidate de mendigar
que haya un hachazo en tu hojo
pero una flor en tu hojal

Sino..

A            
Chac tu Chac!
   G
Tu Chac chac
A
Chac tu Chac!
   G
Tu Chac chac
A
Chac tu Chac!
   G
Tu Chac..


INTRO


RIFF
   Si vos queres estar libre
tomas cualquier elixir
ella se hace invisible
ella se hace sentir

RIFF
   El rey es rey porque baila
..pero se puede caer
bailara sobre la cascara de banana
cuando se ponga de pie


INTRO


A            
Chac tu Chac!
   G
Tu Chac chac
A
Chac tu Chac!
   G
Tu Chac chac
A
Chac tu Chac!
   G
Tu Chac..


RIFF
   Si vos queres estar libre
si queres alto volar
no dejes que te den el tiro
cuando empezas a aletear

RIFF
   El rey es rey porque baila
..pero se puede caer
bailara sobre la cascara de banana
cuando se ponga de pie

PUENTE             x3
e|-------------------|----------3/5--5-3----------------|
B|-------------------|-------5-----------5--------------|
G|-7-5---7-5---7-6-5-|---5-7---------------5-7-5---5-7-5|
D|-----7-----7-------|-7-------------------------7------|
A|-------------------|----------------------------------|
E|-------------------|----------------------------------|

A            
Chac tu Chac!
   G
Tu Chac chac
A
Chac tu Chac!
   G
Tu Chac chac
A
Chac tu Chac!
   G
Tu Chac.. x2

FIN A

Fuente original ATAME [www.atame.org]
Colaborador original: Julian Caffarelli [caffarelli_julian@yahoo.com]

Fuente: tusacordes.com