a b c d e f g h i j k l m n o p q r s t u v w x y z 0-9

Bicho De Ciudad

Los Piojos

			
--------------2--------------------------------------
---------0--3---3--------------3---------------------
---------0-------------------4-----------------------
-----0--------------------0------4-2-4---------------
-0-2------------------0-2----------------------------
-----------------------------------------------------


----------------------------11--11--11---------------
-----------------12-12--11----11--11-----------------
-------3/7/12----11----------------------------------
-----0-----------12---12--11---------------0---------
-0-2-----------------------------------0-2-----------
-----------------------------------------------------




Y continua con los acordes..





Acepto correciones.

Fuente: tusacordes.com