a b c d e f g h i j k l m n o p q r s t u v w x y z 0-9

Babilonia

Los Piojos

			
Babilonia
A.Ciro / Los Piojos.


Vete bobo, vete bobo... 
0:06

G-----------------
D-----------------
A---4--------------
E-----------------

0:11

G-----------------
D-----------------       Repite esta base 
A-2--2-----0-1-2---
E------2-2---------

Algo nena, algo está pasando
cae Babilonia ya
Algo nena, algo está pasando
cae Babilonia ya
Guardia la vieja
guarda tu vieja

Algo nena, algo está pasando
cae Babilonia ya
Algo nena, algo está pasando
cae Babilonia ya
Guardia la vieja
guarda con vierja

Vete bobo, vete bobo... 

1:29
cambia la base
G-----------------          repite hasta el final
D-----------------
A-4-4-----2-3-4----
E-----2-2----------

Vete bobo, vete bobo... 

Algo nena, arde Babilonia
Algo nena, arde Babilonia

Tanto tiempo ha pasado
y vuelve a pasar
Tantas cosas han pasado
y vuelve a pasar

Algo nena...    
G----------------------
D----------------------
A--4--4-4--2--------4--
E-------------4--------

Fuente original ATAME [www.atame.org]
Colaborador original: Mariano Ramos [ramos@fibertel.com.ar]

Fuente: tusacordes.com