a b c d e f g h i j k l m n o p q r s t u v w x y z 0-9

Babilonia

Los Piojos

			
Vete bobo x4
C#
vete bobo.......
vete bobo x4

B con riff 1
Vete bobo

Algo nena, algo esta pasando
Cae babilonia ya 
Algo nena, algo esta pasando
Cae babilonia ya
Guardia la vieja
Guarda con vierja

Riff 1 x2

Algo nena, algo esta pasando
               Riff 3
Cae babilonia ya
Algo nena, algo esta pasando
Cae babilonia ya
Guardia la vieja Riff 4
Guarda con vierja

Vete bobo x4

Riff 2

C#
Vete bobo x4

Algo nena, arde babilonia
Algo nena, arde babilonia

tanto tiempo a pasado y vuelve a pasar
tanto tiempo a pasado, vuelve a pasar
tantas cosas han pasado y vuelven a pasar
tanto tiempo a pasado y vuelve a pasar

Algo nena, algo esta pasando
Cae babilonia ya 
Algo nena, algo esta pasando
                 C#-C#-B-G#   C#
Cae babilonia ya

  Riff 1:                              Riff 2:
e|------------------------------------|---------------------------------------
B|------------------------------------|---------------------------------------
G|------------------------------------|---------------------------------------
D|----------0~1~0---------------------|----------2~3~2------------------------
A|---0-1-22-------2--x3----0-1-22-0---|-----2-44-------4--x3------2-44-2------
E|-2---------------------2----------2-|-2-4-------------------2-4--------4----

  Riff 3:       Riff 4:            
e|------77-----|-----7----1010^--|
B|-7-10----/7--|-/10---10--------|
G|-------------|-----------------|
D|-------------|-----------------|
A|-------------|-----------------|
E|-------------|-----------------|

Fuente original ATAME [www.atame.org]
Colaborador original: El Negro [ Manuel Fernandez]

Fuente: tusacordes.com