a b c d e f g h i j k l m n o p q r s t u v w x y z 0-9

Ay Ay Ay

Los Piojos

E
G
A
			
 hubo un error en la colaboración, esta es una corrección


intro: E7

      
    E7                             x4
e|---------------------------------|1ra.guitarra
B|---------3-----------2h3-3-------|
G|-------1---1-------1-------1-----|
D|-----0-------0---0-----------0---|
A|---2-----------2-----------------|
E|---------------------------------|


     E7                 E7                  verso
e|------------------------------------------|
B|------------------------------------2h3---|
G|------------------0h1---------------------|
D|---0-0---0-0---0------0-0---0-0---0-------|
A|-------2-----2------------2-----2---------|
E|------------------------------------------|

Ay ay ay
dando vueltas sin pensar
Ay ay ay 
mirando la vía pasar

Subido en el techo
el techo del tren
siento libertad 
y siento poder

Nada nos detiene
ninguna ciudad
demasiado
peso bestia de metal

Ay ay ay
dando vueltas sin pensar
ay ay ay
mirando la vía pasar

iban por la calle
como en procesión
iban por la niebla
y unsolo tambor

Parece que el sueño
no se te iba más 
o también parece
que escuchaste tu compás

Ay ay ay
dando vueltas sin pensar
ay ay ay
no se puede descansar

Si yo me muriera 
adónde me iría
sentado en la sombra 
yo te esperaría
ella baja por el río
ella quema como el Sol 
ella baña mis latidos 
desesperado color

Ay ay ay
ay ay ay 

E7

E G A 

PUNTEO:E7

E                G        A 
Colgando del tren como racimos [hasta el final]

   E7   E   G   A 
   
e|--0---0---3---0-----|
B|--3---0---0---2-----||
G|--1---1---0---2-----||
D|--0---2---0---2-----||
A|--2---2---2---0-----||
E|--0---0---3---X-----||

Es mi primera transcripción así que espero que les guste.

AGUANTE LOS PIOJOS



    L      OOO   SSSS     PPPP   I   OOO      J   OOO    SSSS
    L     O   O S         P   P  I  O   O     J  O   O  S
    L     O   O  SSS      PPPP   I  O   O     J  O   O   SSS
    L     O   O     S     P      I  O   O J   J  O   O      S
    LLLLL  OOO  SSSS      P      I   OOO   JJJ    OOO   SSSS


Aguante los pibes de Plaza Vea 

Fuente original ATAME [www.atame.org]
Colaborador original: quemero [quemeropiojoso@hotmail.com]

Fuente: tusacordes.com