a b c d e f g h i j k l m n o p q r s t u v w x y z 0-9

Amor De Perros

Los Piojos

			
Hola, esta partitura para bajo esta adecuada a la
segunda colaboracion q hay en atame.. esta muy buena y
queda muy bien.

Riff 1:
ESTA ES LA PROGRESION QUE VA EN LA MAYOR
PARTE DE LA CANCION empieza con eso :
G------------------------
D--------------3---------
A----------3-3----5------
E--3-3-3-3---------------

Riff 2:
PUENTE:"noches de amor.."
G------------------
D--------------0-0-
A--2-2-3-3-0-0-----
E------------------

Riff 3:
ESTRIBILLO:
ESTA ES LA PARTE QUE DICE: "PORKE HAY UN CORAZÓN Q.."
G-----------------------------------------------------
D-----------------------------------------------------
A-3-3-3-3-3-3-3-3-3-3-3-3-3-3-3-3-3-3-3-3-3-3-3---5-5-
E-----------------------------------------------------

Riff 2:
PUENTE 2 "hoy caminabas en.."

Riff 3:
ESTRIBILLO

Riff 3:
FINAL
EL FINAL ES LA LETRA DEL ESTRIBILLO PERO TOCANDO
LO QUE ES LA PROGRESIÓN.

BUENO ESPERO Q LES GUSTE ESTA MUY BUENA,
si tienen alguna duda manden un mail a:
ergonza@hotmail.com  o a  bochacapo_che@hotmail.com

Fuente original ATAME [www.atame.org]
Colaborador original: bocha y gonza [bochacapo_che@hotmail.com]

Fuente: tusacordes.com