a b c d e f g h i j k l m n o p q r s t u v w x y z 0-9

Al Desierto

Los Piojos

			
Intro
G-|---------------------------------------------------|
D-|---------------------------------------------------|
A-|-------------3---3-----1-5---5-----3---------------|
E-|-5-0-5-0-0-3---3---3-3-----5---5-5---5-0-5-0-0-3-5-|x2

No me mires...
G-|-----------|
D-|-----------|
A-|-----------|
E-|-5-0-5-0-3-|

De rodillas...
G-|-----------|
D-|-----------|
A-|-3---3-----|
E-|---3---3-1-|

Dame el agua...
G-|-----------|
D-|-----------|
A-|-----------|
E-|-5-0-5-0-3-|

No me mires...
G-|-----------|
D-|-----------|
A-|-3---3-----|
E-|---3---3-1-|

Repite lo mismo en la 2da. parte

Estribillo
G-|---------------------------------------------------|
D-|---------------------------------------------------|
A-|-------------3---3-----1-5---5-----3---------------|
E-|-5-0-5-0-0-3---3---3-3-----5---5-5---5-0-5-0-0-3-5-|x2

Fuente original ATAME [www.atame.org]
Colaborador original: Juan P. Torres [juanptorres@hotmail.com]

Fuente: tusacordes.com