a b c d e f g h i j k l m n o p q r s t u v w x y z 0-9

Al Desierto

Los Piojos

			
Riff 1
-----------------------------|-------------------------------||
-----------------------1/3-1-|-------------------------------||
-----2-2-----2-2-----2-------|-----2-2-----2-2-----4p2-------||
-2h4-----2h4-----2h4---------|-2h4-----2h4-----2h4-----4p2---||
-----------------------------|-----------------------------0-||
-----------------------------|-------------------------------||
 A                             A                           A    
              
Riff 2
----------------------------|----------------------------||
----------------------------|----------------------------||
-0h2p0----------------------|-0h2p0----------------------||
-------h2-2h5p2p0-0h2p0---2-|-------h2-2h5p2p0-0h2p0-----||
------------------------3---|------------------------3-0-||
----------------------------|----------------------------||
 A			A	       A	       A

Riff 3                                                                              
-------------||
-------------||
-------------||
-7-2-7-2-2-5-||
-7-2-7-2-2-5-||
-5-0-5-0-0-3-||

Riff 4
---------------||
---------------||
---------------||
-10-5-10-5-5-8-||
-10-5-10-5-5-8-||
-8--3-8--3-3-6-||
                                                                              
Riff 5
----------||
----------||
----------||
-7-8-9-10-||
-7-8-9-10-||
-5-6-7-8--||
                                                                              
Riff 6
----------||
----------||
----------||
-10-9-8-7-||
-10-9-8-7-||
-8--7-6-5-||

Intro: A - C - D - Ax 2

Riff 1x 2

n.c.
No me mires, con desprecio
si te digo chau?
Yo soy libre, yo soy eso
			       A-A#-B-C
soy un preso de mi libertad


De rodillas, no te rezo
					 C-B-A#-A
que aunque muera de éste salitral.
dame el agua, de tus besos
				A-A#-B-C
dame un poco de tu soledad
				C
No me mires, con desprecio
			  D-C#-C     B	 A
si algún día yo te digo chau, chau, chau?

A	    C		 D				 A
Al desierto se van, los que quieren estar solos
A	  C	    D		 A
cemento y metal, arena y sal

Riff 1x 2

Riff 3
No te rías, del espejo
Riff 3
es la imagen que vos das
Riff 3
el buen gusto, quedo lejos
Riff 3				Riff 5
con las risas de nuestra amistad
Riff 4
De rodillas, yo no llego
Riff 4				Riff 6
ni a la esquina para ir a chupar
Riff 3
Dame algunos, de tus jugos
Riff 3			Riff 5
dame un poco de tu soledad
Riff 4			C
No me mires, con desprecio
			  D-C#-C     B	 A
si algún día yo te digo chau, chau, chau?


Al desierto se van, los que quieren estar solos
cemento y metal, arena y sal
Al desierto se van, los que quieren estar solos
Igual que en la ciudad, te sentirás

Riff 3x 2
Riff 2x 2

Al desierto se van, los que quieren estar solos
cemento y metal, arena y sal
Al desierto se van, los que quieren estar solos
Igual que en la ciudad, te sentirás

Riff 2 repite A.

Fuente original ATAME [www.atame.org]
Colaborador original: Goncho87 [grafuls@yahoo.com.ar]

Fuente: tusacordes.com