a b c d e f g h i j k l m n o p q r s t u v w x y z 0-9

Al Atardecer

Los Piojos

			
En la intro es importante hacer sonar bien largos las notas para 
que suene igual.

# Bajar el sonido por el diapasón hasta perder el sonido 12 
hacia  1

~ Vibrato 

Intro:
|-------------7 ~~-------------12~~--12#-12#-----|
|---10~~--7~~--------10~~--7~~-------------------|
|------------------------------------------------|
|------------------------------------------------|
|------------------------------------------------|
|------------------------------------------------|

Cuando dice Al Atardecer antes de ir al estribillo hace este 
riff encima y lo repite también en otras partes, pero casi 
siempre cuando aparece la frase Al atardecer escuchenlo bien

|------2-7-5------2-7-5-----|
|----3----------3-----------|
|--2----------2-------------|
|---------------------------|
|---------------------------|
|---------------------------|

Riff Final:
|---------------------|
|---------------------|
|---------------------|
|-----7-5-4-2-0-------|
|---------------------|
|---------------------|

La Intro tambien la repite durante el tema despues del estribillo


Espero que les sirva, suena todo muy bien. Dudas, Comentarios, 
Pedidos, a mi dirección de mail y piojosas que quieran RnR 
ahí esta mi direccion de mail agrenguenme al MSN.
Saludos a todos los piojosos!!!!!!!!!!

Fuente original ATAME [www.atame.org]
Colaborador original: Matias matocq [matimatocq@hotmail.com]

Fuente: tusacordes.com