a b c d e f g h i j k l m n o p q r s t u v w x y z 0-9

Agua

Los Piojos

			
**El Bajo entra en el segundo verso**

Verso:
G|-----------------------------|
D|---4-7----4-7----2-5---------|
A|-5------5------3--------2-5--|
E|----------------------3------|

Puente:
G|------------------|x2
D|-------------4-7--|
A|-3-------5------|
E|------3---------|

Verso: **2 VECES**
G|-----------------|x4
D|---4---5---7---5-|
A|-5---5---5---5---|
E|-----------------|

 |-----------------|x2
 |---2---3---5---3-|
 |-3---3---3---3---|
 |-----------------|

 |-----------------|x2
 |-----------------|
 |---2---3---5---3-|
 |-3---3---3---3---|

Puente: **2 VECES**
G|-----------------|
D|---2---3---5---3-|
A|-3---3---3---3---|
E|-----------------|

 |-----------------|
 |-----------------|
 |---2---3---5---3-|
 |-3---3---3---3---|
 
 |-----------------|x2
 |---4---5---7---5-|
 |-5---5---5---5---|
 |-----------------|

Verso Nş2 era clara...: **4 VECES**
G|------------------|------------------|
D|------------------|------------------|
A|------0---1---3---|------4---5---7---|
E|-1--1---1---1---1-|-5--5---5---5---5-|
 
 |------------------|------------------|
 |------2---3---5---|------1---2---4---|
 |-3--3---3---3---3-|-2--2---2---2---2-|
 |------------------|------------------|

Puente:
G|-----------------|x4
D|---4---5---7---5-|
A|-5---5---5---5---|
E|-----------------|

Verso: **2 VECES**
G|-----------------|x4
D|---4---5---7---5-|
A|-5---5---5---5---|
E|-----------------|

 |-----------------|x2
 |---2---3---5---3-|
 |-3---3---3---3---|
 |-----------------|

 |-----------------|x2
 |-----------------|
 |---2---3---5---3-|
 |-3---3---3---3---|

Final uih uih uh...:
G|------------------|x3
D|----4---5---7---4-|
A|-5----5---5---5---|
E|------------------|

 |------------------|x1
 |----2---3---5---2-|
 |-3----3---3---3---|
 |------------------|

Escuchá la canción para saber el ritmo

Fuente original ATAME [www.atame.org]
Colaborador original: Sebastián Vidondo [rojoamargodelsiglo@yahoo.com.ar]

Fuente: tusacordes.com