a b c d e f g h i j k l m n o p q r s t u v w x y z 0-9

A Veces

Los Piojos

			
BASE:
1|---------------|
2|---------------|
3|---3-5-3-------|
4|-5-------5-5-3-|

CUANDO DICE “A VECES SE CEVA”:
1|---------------------|
2|---------------------|
3|---3-5-3---555-555---|
4|-5-------5-----------|

DESPUÉS DE QUE DICE “VAS A VER CUANDO 
TE ENCRUENTRE LA SEGUNDA VEZ”:
1|----------|
2|----------|
3|-77777777-|
4|----------|

DESPUÉS ES LA BASE EL RESTO DE LA CANCIÓN
SI TIENEN ALGUNA DUDA O ARREGLO MANDENME UN E-MAIL A
gera01@uol.com.ar 
AGUANTE EL 87!!!!!

Fuente original ATAME [www.atame.org]
Colaborador original: Gerardo DAbundo [gera01@uol.com.ar]

Fuente: tusacordes.com