a b c d e f g h i j k l m n o p q r s t u v w x y z 0-9

Run Away

Los Pericos

			
Intro
   |   |   |   |
G||----------------|
D||----------------|
A||----------------|
E||----------------|

   D       A        E       F#m      D       A        E       F#m
   |   |   |   |    |   |   |   |    |   |   |   |    |   |   |   |
  |----------------|----------------|----------------|----------------|
  |----------------|--------44----4-|----------------|--------44----4-|
  |5---5--5-----45-|7---7--7---4-7--|5---5--5-----45-|7---7--7---4-7--|
  |--------55-5----|----------------|--------55-5----|----------------|



Verso-Cuidame bien...

   D       A        E       F#m      D       A        E       F#m
   |   |   |   |    |   |   |   |    |   |   |   |    |   |   |   |
  |----------------|----------------|----------------|----------------|
  |----------------|--------44----4-|----------------|--------44----4-|
  |5---5--5-----45-|7---7--7---4-7--|5---5--5-----45-|7---7--7---4-7--|
  |--------55-5----|----------------|--------55-5----|----------------|


Verso-Voy a fumar...

   D       A        E       F#m      D       A        E       F#m
   |   |   |   |    |   |   |   |    |   |   |   |    |   |   |   |
  |----------------|----------------|----------------|----------------|
  |----------------|--------44----4-|----------------|--------44----4-|
  |5---5--5-----45-|7---7--7---4-7--|5---5--5-----45-|7---7--7---4-7--|
  |--------55-5----|----------------|--------55-5----|----------------|


Estribillo-Run-a-run...

   D       A        E       B        D       A        E       B
   |   |   |   |    |   |   |   |    |   |   |   |    |   |   |   |
  |----------------|----------------|----------------|----------------|
  |--4-7--7----7--7|--6-9--9--------|--4-7--7----7--7|--6-9--9--------|
  |5---------4-----|7---------6-9|5---------4-----|7---------6-9|
  |--------5-------|--------7-------|--------5-------|--------7-------|


Verso-Voy a escribir...

   D       A        E       F#m      D       A        E       F#m
   |   |   |   |    |   |   |   |    |   |   |   |    |   |   |   |
  |----------------|----------------|----------------|----------------|
  |----------------|--------44----4-|----------------|--------44----4-|
  |5---5--5-----45-|7---7--7---4-7--|5---5--5-----45-|7---7--7---4-7--|
  |--------55-5----|----------------|--------55-5----|----------------|


Verso-Voy a pedir...

   D       A        E       F#m      D       A        E       F#m
   |   |   |   |    |   |   |   |    |   |   |   |    |   |   |   |
  |----------------|----------------|----------------|----------------|
  |----------------|--------44----4-|----------------|--------44----4-|
  |5---5--5-----45-|7---7--7---4-7--|5---5--5-----45-|7---7--7---4-7--|
  |--------55-5----|----------------|--------55-5----|----------------|


Estribillo-Run-a-run...

   D       A        E       B        D       A        E       B
   |   |   |   |    |   |   |   |    |   |   |   |    |   |   |   |
  |----------------|----------------|----------------|----------------|
  |--4-7--7----7--7|--6-9--9--------|--4-7--7----7--7|--6-9--9--------|
  |5---------4-----|7---------6-9|5---------4-----|7---------6-9|
  |--------5-------|--------7-------|--------5-------|--------7-------|


Estribillo-Run-a-run...

   D       A        E       B        D       A        E       B
   |   |   |   |    |   |   |   |    |   |   |   |    |   |   |   |
  |----------------|----------------|----------------|----------------|
  |--4-7--7----7--7|--6-9--9--------|--4-7--7----7--7|--6-9--9--------|
  |5---------4-----|7---------6-9|5---------4-----|7---------6-9|
  |--------5-------|--------7-------|--------5-------|--------7-------|


Intro

   D       A        E       F#m      D       A        E       F#m
   |   |   |   |    |   |   |   |    |   |   |   |    |   |   |   |
  |----------------|----------------|----------------|----------------|
  |----------------|--------44----4-|----------------|--------44----4-|
  |5---5--5-----45-|7---7--7---4-7--|5---5--5-----45-|7---7--7---4-7--|
  |--------55-5----|----------------|--------55-5----|----------------|


Verso-Cuidame bien...

   D       A        E       F#m      D       A        E       F#m
   |   |   |   |    |   |   |   |    |   |   |   |    |   |   |   |
  |----------------|----------------|----------------|----------------|
  |----------------|--------44----4-|----------------|--------44----4-|
  |5---5--5-----45-|7---7--7---4-7--|5---5--5-----45-|7---7--7---4-7--|
  |--------55-5----|----------------|--------55-5----|----------------|


Verso-Voy a tomar...

   D       A        E       F#m      D       A        E       F#m
   |   |   |   |    |   |   |   |    |   |   |   |    |   |   |   |
  |----------------|----------------|----------------|----------------|
  |----------------|--------44----4-|----------------|--------44----4-|
  |5---5--5-----45-|7---7--7---4-7--|5---5--5-----45-|7---7--7---4-7--|
  |--------55-5----|----------------|--------55-5----|----------------|


Estribillo-Run-a-run...

   D       A        E       B        D       A        E       B
   |   |   |   |    |   |   |   |    |   |   |   |    |   |   |   |
  |----------------|----------------|----------------|----------------|
  |--4-7--7----7--7|--6-9--9--------|--4-7--7----7--7|--6-9--9--------|
  |5---------4-----|7---------6-9|5---------4-----|7---------6-9|
  |--------5-------|--------7-------|--------5-------|--------7-------|


Estribillo-Run-a-run...

   D       A        E       B        D       A        E       B
   |   |   |   |    |   |   |   |    |   |   |   |    |   |   |   |
  |----------------|----------------|----------------|----------------|
  |--4-7--7----7--7|--6-9--9--------|--4-7--7----7--7|--6-9--9--------|
  |5---------4-----|7---------6-9|5---------4-----|7---------6-9|
  |--------5-------|--------7-------|--------5-------|--------7-------|


Intro-Away...

   D       A        E       F#m      D       A        E       F#m
   |   |   |   |    |   |   |   |    |   |   |   |    |   |   |   |
  |----------------|----------------|----------------|----------------|
  |----------------|--------44----4-|----------------|--------44----4-|
  |5---5--5-----45-|7---7--7---4-7--|5---5--5-----45-|7---7--7---4-7--|
  |--------55-5----|----------------|--------55-5----|----------------|


   D       A        E       F#m      D       A        E       F#m
   |   |   |   |    |   |   |   |    |   |   |   |    |   |   |   |
  |----------------|----------------|----------------|----------------|
  |----------------|--------44----4-|----------------|--------44----4-|
  |5---5--5-----45-|7---7--7---4-7--|5---5--5-----45-|7---7--7---4-7--|
  |--------55-5----|----------------|--------55-5----|----------------|
   .......volúmen bajando........... .......volúmen bajando...........


   D       A        E       F#m
   |   |   |   |    |   |   |   |
  |----------------|----------------||=>
  |----------------|--------44----4-||=>
  |5---5--5-----45-|7---7--7---4-7--||=>
  |--------55-5----|----------------||=>
   .......volúmen bajando...........

Fuente original ATAME [www.atame.org]
Colaborador original: Cris77ian [yocdp@yahoo.com.ar]

Fuente: tusacordes.com