a b c d e f g h i j k l m n o p q r s t u v w x y z 0-9

La Chacarera Del Rancho

Los Nocheros

			
INTRO

-----------------------------------------------------------------------------------------1ra
-----------------------------------------------------------------------------------------
----------------2-1-4--2~0-------------------------------------------2-1-4-2~0-----------
------0-2~0---2------------2---2-3--3~22-0-----0-----------0-2~0---2-----------2---2-0-2-
0-2-3-------3----------------3------------3-2---3---0-2-3-------3---------------3-------5ta


-------------------1ra
-------------------
-------------------    BIS
3-2-0-----0--------
------3-2---3-2-0--5ta


SOLO

-------------5-7-5--8-7-4--0---------------------5-4-3-4-7-5--8-7--4-2-4-5--1ra
------3-5~3----------------5-3-1---------3-5-4-5----------------------------
2-4-5-------5-7----9-7--4---------2-4-5---------------------9-7--4--2-4-5--
--------------------------6-3--2--------------------------------------------4ta

DEDICO ESTA TAB A MI SOBRINO MATIAS

Fuente original ATAME [www.atame.org]
Colaborador original: walter [wal_5522@hotmail.com]

Fuente: tusacordes.com