a b c d e f g h i j k l m n o p q r s t u v w x y z 0-9

Nadie Cree En Mi Cancion

Los Gardelitos

			
Intro:

G-----------|----------|----------|------|
D-----------|----------|----------|------|
A-----2-----|----------|----------|------|
E-3-------5-|----------|----------|------|


Las noches son largas?

G-------|---4---|-------|--------|-------|
D---5---|-------|---7---|---5----|-------|
A-------|-2---2-|-------|--------|-------|
E-3---3-|-------|-5---5-|-3----3-|-3/14--| x2

Sola en el viento te anunciaras..
G-----------|-------------|
D-----------|-------------|
A-9-9-11/12-|-2-0-2/3-2/0-|
E-----------|-------------|x2

Y aunque no veas el sol en mi?

G-----------|--------------|---------------------|
D-----------|----3-5-3-----|---------------------|
A-9-9-11/12-|3-5-------5-3-|---------5-5-5-5/14--|
E-----------|--------------|-3-3-3-3-------------|


Para hablarte de ?

G--------------|
D--------------|
A--------------|
E-5-5-3-3-3-3--|x3

G--------------------|
D--------------------|
A-----3-3-3-3-5-5-5-5|
E-5-5----------------|x3

Solo

G-------|---4---|-------|--------|-------|
D---5---|-------|---7---|---5----|-------|
A-------|-2---2-|-------|--------|-------|
E-3---3-|-------|-5---5-|-3----3-|-3/14--| x2


G-----------|-------------|
D-----------|-------------|
A-9-9-11/12-|-2-0-2/3-2/0-|
E-----------|-------------|x2

G-----------|--------------|---------------------|
D-----------|----3-5-3-----|---------------------|
A-9-9-11/12-|3-5-------5-3-|---------5-5-5-5/14--|
E-----------|--------------|-3-3-3-3-------------|


G--------------------|
D--------------------|
A-----3-3-3-3-5-5-5-5|
E-5-5----------------|x3


el tema esta muy copado para tocarlo. Martin hace cosas diferentes
a lo q hacia jorge , esta es la version de jorge osea la de gardeliando
Es muy rapido el tema asi que fijense el ritmo.


los gardelitos mi manera de ser feliz

Fuente: tusacordes.com