a b c d e f g h i j k l m n o p q r s t u v w x y z 0-9

Te Vistes Y Te Vas

Los Bunkers

			
Por: Jµªn§µðª|

Aquí va el tema completo

Intro:

Guitarra 1:
e--5--5--5-------------5--5--5-------------
B--5--5--5-------------5--5--5-------------
G--6--6--6-------------6--6--6-------------
D--7--7--7-------------7--7--7-------------
A--7--7--7--5-5-4-2-4--7--7--7--5-5-4-2-4--
E--5--5--5-------------5--5--5-------------

e--5--5--5-------------5--5--5-------------
B--7--7--7-------------7--7--7-------------
G--7--7--7-------------7--7--7-------------
D--7--7--7--5-5-4-2-4--7--7--7--5-5-4-2----
A--5--5--5-------------5--5--5----------5--
E--5--5--5-------------5--5--5-------------

Guitarra 2:
e--5--5--5-------------5--5--5-------------
B--5--5--5-------------5--5--5-------------
G--6--6--6--7-7-6-4-6--6--6--6--7-7-6-4-6--
D--7--7--7--7-7-6-4-6--7--7--7--7-7-6-4-6--
A--7--7--7-------------7--7--7-------------
E--5--5--5-------------5--5--5-------------

e--5--5--5-------------5--5--5-------------
B--7--7--7--8-8-7-5-7--7--7--7--8-8-7-5----
G--7--7--7--7-7-7-7-7--7--7--7--7-7-7-7-7--
D--7--7--7-------------7--7--7----------7--
A--5--5--5-------------5--5--5-------------
E--5--5--5-------------5--5--5-------------

La intro ze repite 2 vezez
Durante loz verzoz la guitarra 1 haze eztoz acordez
Y la guitarra 2 loz haze normalez
  LA      RE       obviamente ze razguean
e-----   -----
B-----   -----
G-----   --7--
D--7--   --0--
A--0--   --5--
E--5--   -----

    LA
 A) Tomando en cuenta

    que no hay nada que decir
    RE
    no me preguntes mas

 A) Pensando un poco
    en lo que has visto ya de mi
    te puedes arrancar

coro:
guitarra 2:
haze una wea bien ridícula que conzizte en:

b--7----7------  hazta que ze acaba el coro
g----6~---6~-6-

    F#m MI     RE  MI         F#m
 B) Tu sabes como me gusta a mi
        MI     RE   MI        F#m
    un par de copas antes de ti
        MI     RE   MI        F#m
    te crees algo muy especial
        MI           RE
    te vistes y te vas
     MI
    nada mas que hablar

ze repite la intro 2 vezez

 A) Te he visto abrirte
    sin dudar de par en par
    despues de anochecer

 A) Me has dicho todos
    tus problemas a pesar
    que no me enterare

 B) F#m  MI     RE   MI      F#m
    No esperes nada mas para ti
        MI     RE     MI       F#m
    un beso y ya te alejas de mi
         MI   RE   MI        F#m
    te crees algo muy especial
          MI         RE
    te vistes y te vas
    MI           aquí haze LA intro zolo guitarra 1
    nada mas que hablar
    nada mas que hablar
    y no vuelvas mas
    uoooohhh

zolo:
guitarra 1:
    F#m MI RE MI x4
    LA RE x2

Guitarra 2:
e---------------------------------------------
B--9---9-7------------------------------------
G----6-----6-7-7h9-7-6-------6-------------6--
D----------------------9-7-9---9-7-7-6-4-6----
A---------------------------------------------
E---------------------------------------------

e-----------------------------------------------
B--9---9-7--------------------------------------
G----6-----6-7-7h9-7-6-------6-7h9-----------6--
D----------------------9-7-9-------7-7-6-4-6----
A-----------------------------------------------
E-----------------------------------------------

e-ezto va razgueado----------------------------
B-----------------15-14-7---6h7-6h7-6h7-6-4-4h6--
G--6-7-9-11-13-14-x--x--x------------------------
D--x-x-x-x--x--x--12-11-4------------------------
A--4-5-7-9--11-12--------------------------------
E------------------------------------------------


 B)Tu sabes como me gusta a mi
   un par de copas antes de ti
   te crees alguien muy especial
   te vistes y te vas
   nada mas que hablar
   nada mas que hablar
   y no vuelvas mas
   uoooohhh

termina con la intro
FIN: LA

En el punteo la parte que ze indica razgueado
quiere dezir que cada nota que apareze ze rasguea
la cantidad de vezez que zea conveniente
La x significa que se toca la cuerda apagada
Y ezo, ahí ta el tema ojala lez zuene bien
Coza que o dudo porque ta perfecto
Un zaluo para mi, mi trolola y mi guitarraFuente: Tus acordes