a b c d e f g h i j k l m n o p q r s t u v w x y z 0-9

Diosa

Los Autenticos Decadentes

			
La Afinacion del Bajo es Normal. E A D G

  Q=145
 4/4
  Gtr I
  W          E E E E Q  Q    Q  E E Q  Q    Q  Q  Q  E E
|----------|---------------|--------------|---------------|
|----------|---------------|-5------5-----|-------7-------|
|----------|-3-------3-----|----5------5--|----7-----7----|
|----------|-----3------3--|--------------|-5-------------|


  Q  Q  Q  E E   Q  Q  Q  Q    Q  Q  Q  Q    Q  Q  Q  Q
|--------------|-------------|-------------|-------------|
|--------------|-------7-----|-------------|-5-----5-----|
|-7-----7------|----7-----7--|-7-----7-----|----5-----5--|
|----7-----7---|-5-----------|----7-----7--|-------------|


  Q  Q  Q  Q    Q  Q  Q  Q    Q  E E E E E E   Q  Q  Q  Q
|-------------|-------------|----------------|-------------|
|-5-----5--4--|-3-----3-----|-3----3-5---5---|-------------|
|----5--------|----3-----3--|----3-----------|-3-----3-----|
|-------------|-------------|----------------|----3-----3--|


  Q  Q  Q  Q    Q  Q  Q  Q    Q  Q  Q  Q    Q  Q  Q  Q
|-------------|-------------|-------------|-------------|
|-------------|-5-----5-----|-5-----5-----|-7-----7-----|
|-3-----3-----|----5-----5--|----5-----5--|----7-----7--|
|----3-----3--|-------------|-------------|-------------|


  Q  Q  Q  Q    Q  Q  Q  Q    Q  Q  Q  Q    Q  Q  Q  Q
|-------------|-------------|-------------|-------------|
|-7-----7-----|-------------|-------------|-7-----7-----|
|----7-----5--|-7-----7-----|-7-----7-----|----7-----7--|
|-------------|----7-----7--|----7-----7--|-------------|


  Q  Q  Q  Q    Q  Q  Q  Q    Q  Q  Q  Q    Q  Q  Q  Q
|-------------|-------------|-------------|-------------|
|-7-----7--5--|-------------|-------------|-------------|
|----7--------|-7-----7-----|-7-----7--6--|-5-----5-----|
|-------------|----7-----7--|----7--------|----5-----5--|


  Q  Q  Q  Q    Q  Q  Q  Q    E E Q  Q  Q    Q  Q  Q  Q
|-------------|-------------|--------------|-------------|
|-4-----4-----|-------------|--------------|-------------|
|----4-----4--|-2-----2-----|-2---2--4--5--|-7-----7-----|
|-------------|----2-----2--|--------------|----7-----7--|


  Q  Q  Q  Q    Q  Q  Q  Q    E E E E +Q   Q    Q  Q  Q  Q
|-------------|-------------|-----------------|-------------|
|-------------|-7-----7-----|-----------------|-7-----7-----|
|-7-----7-----|----7-----7--|-5-----7-7-----|----7-----7--|
|----7-----7--|-------------|-----------------|-------------|


  Q  Q  Q  Q    Q  Q  Q  Q    Q  Q  Q  Q    Q  Q  Q  Q
|-------------|-------------|-------------|-------------|
|-7-----7--6--|-4-----4-----|-4-----------|----4-----4--|
|----7--------|----4-----4--|----4--------|-2-----2-----|
|-------------|-------------|-------2--5--|-------------|


  Q  Q  Q  Q    Q  Q  Q  Q    Q  Q  Q  Q    Q  Q  Q  Q
|-------------|----4-----4--|----4--------|-------------|
|----4--------|-2-----2-----|-2-----2-----|-------------|
|-2-----2--5--|-------------|----------2--|----7-----7--|
|-------------|-------------|-------------|-5-----5-----|


  Q  Q  Q  Q    Q  Q  Q  Q    Q  Q  Q  Q    Q  Q  Q  Q
|-------------|-------------|-------------|-------------|
|-------------|-------------|-------------|----4-----4--|
|----7--------|----4-----4--|----4--------|-2-----2-----|
|-5-----5--4--|-2-----2-----|-2-----2--5--|-------------|


  Q  Q  Q  Q    Q  Q  Q  Q    Q  Q  Q  Q    E E E E Q  Q
|-------------|----4-----4--|-------------|---------------|
|----4-----4--|-2-----2-----|-3-----5-----|---------------|
|-2-----2-----|-------------|----3-----5--|-3-------3-----|
|-------------|-------------|-------------|-----3------3--|


  Q  E E Q  Q    Q  Q  Q  E E   Q  Q  Q  E E   Q  Q  Q  Q
|--------------|--------------|--------------|-------------|
|-5------5-----|-------7------|--------------|-------7-----|
|----5------5--|----7-----7---|-7-----7------|----7-----7--|
|--------------|-5------------|----7-----7---|-5-----------|


  Q  Q  Q  Q    Q  Q  Q  Q    Q  Q  Q  Q    Q  Q  Q  Q
|-------------|-------------|-------------|-------------|
|-------------|-5-----5-----|-5-----5--4--|-3-----3-----|
|-7-----7-----|----5-----5--|----5--------|----3-----3--|
|----7-----7--|-------------|-------------|-------------|


  Q  E E E E E E   Q  Q  Q  Q    Q  Q  Q  Q    Q  Q  Q  Q
|----------------|-------------|-------------|-------------|
|-3----3-5---5---|-------------|-------------|-5-----5-----|
|----3-----------|-3-----3-----|-3-----3-----|----5-----5--|
|----------------|----3-----3--|----3-----3--|-------------|


  Q  Q  Q  Q    Q  Q  Q  Q    Q  Q  Q  Q    Q  Q  Q  Q
|-------------|-------------|-------------|-------------|
|-5-----5-----|-7-----7-----|-7-----7-----|-------------|
|----5-----5--|----7-----7--|----7-----5--|-7-----7-----|
|-------------|-------------|-------------|----7-----7--|


  Q  Q  Q  Q    Q  Q  Q  Q    Q  Q  Q  Q    Q  Q  Q  Q
|-------------|-------------|-------------|-------------|
|-------------|-7-----7-----|-7-----7--5--|-------------|
|-7-----7-----|----7-----7--|----7--------|-7-----7-----|
|----7-----7--|-------------|-------------|----7-----7--|


  Q  Q  Q  Q    Q  Q  Q  Q    Q  Q  Q  Q    Q  Q  Q  Q
|-------------|-------------|-------------|-------------|
|-------------|-------------|-4-----4-----|-------------|
|-7-----7--6--|-5-----5-----|----4-----4--|-2-----2-----|
|----7--------|----5-----5--|-------------|----2-----2--|


  E E Q  Q  Q    Q  Q  Q  Q    Q  Q  Q  Q    Q  Q  Q  Q
|--------------|-------------|-------------|-------------|
|--------------|-------------|-------------|-7-----7-----|
|-2---2--4--5--|-7-----7-----|-7-----7-----|----7-----7--|
|--------------|----7-----7--|----7-----7--|-------------|


  E E E E +Q   Q    Q  Q  Q  Q    Q  Q  Q  Q    Q  Q  Q  Q
|-----------------|-------------|-------------|-------------|
|-----------------|-7-----7-----|-7-----7--6--|-4-----4-----|
|-5-----7-7-----|----7-----7--|----7--------|----4-----4--|
|-----------------|-------------|-------------|-------------|


  Q  Q  Q  Q    Q  Q  Q  Q    Q  Q  Q  Q    Q  Q  Q  Q
|-------------|-------------|-------------|----4-----4--|
|-4-----------|----4-----4--|----4-----0--|-2-----2-----|
|----4-----0--|-2-----2-----|-2-----2-----|-------------|
|-------2-----|-------------|-------------|-------------|


  Q  Q  Q  Q    Q  Q  Q  Q    Q  Q  Q  Q    Q  Q  Q  Q
|----4--------|-------------|-------------|-------------|
|-2-----2-----|-------------|-------------|-------------|
|----------2--|----7-----7--|----7--------|----4-----4--|
|-------------|-5-----5-----|-5-----5--4--|-2-----2-----|


  Q  Q  Q  Q    Q  Q  Q  Q    Q  Q  Q  Q    Q  Q  Q  Q
|-------------|-------------|-------------|----4-----4--|
|-------------|----4-----4--|----4-----4--|-2-----2-----|
|----4-----0--|-2-----2-----|-2-----2-----|-------------|
|-2-----2-----|-------------|-------------|-------------|


  Q  Q  Q  Q    Q  Q  Q  Q    Q  Q  Q  Q    Q  Q  Q  Q
|-------------|-------------|-------------|-------------|
|-3-----5-----|-7-----7-----|-7-----7--6--|-4-----4-----|
|----3-----5--|----7-----7--|----7--------|----4-----4--|
|-------------|-------------|-------------|-------------|


  Q  Q  Q  Q    Q  Q  Q  Q    Q  Q  Q  Q    Q  Q  Q  Q
|-------------|-------------|-------------|----4-----4--|
|-4-----------|----4-----4--|----4-----0--|-2-----2-----|
|----4-----0--|-2-----2-----|-2-----2-----|-------------|
|-------2-----|-------------|-------------|-------------|


  Q  Q  Q  Q    Q  Q  Q  Q    Q  Q  Q  Q    Q  Q  Q  Q
|----4--------|-------------|-------------|-------------|
|-2-----2-----|----2-----2--|----2--------|-------------|
|----------2--|-0-----0-----|-0-----0-----|----4-----4--|
|-------------|-------------|----------4--|-2-----2-----|


  Q  Q  Q  Q    Q  Q  Q  Q    Q  Q  Q  Q    Q  Q  Q  Q
|-------------|-------------|-------------|----4-----4--|
|-------------|----4-----4--|----4-----4--|-2-----2-----|
|----4-----0--|-2-----2-----|-2-----2-----|-------------|
|-2-----2-----|-------------|-------------|-------------|


  E E E E E E E E   E E E E E E E E   Q  Q  Q  Q    Q  Q  Q  Q
|-----------------|---2---4---5---6-|-------------|-------------|
|---2---4---5---6-|-----------------|-7-----7-----|-7-----7--6--|
|-----------------|-----------------|----7-----7--|----7--------|
|-----------------|-----------------|-------------|-------------|


  Q  Q  Q  Q    Q  Q  Q  Q    Q  Q  Q  Q    Q  Q  Q  Q
|-------------|-------------|-------------|-------------|
|-4-----4-----|-4-----------|----4-----4--|----4-----0--|
|----4-----4--|----4-----0--|-2-----2-----|-2-----2-----|
|-------------|-------2-----|-------------|-------------|


  Q  Q  Q  Q    Q  Q  Q  Q    Q  Q  Q  Q    Q  Q  Q  Q
|----4-----4--|----4--------|-------------|-------------|
|-2-----2-----|-2-----2-----|-------------|-------------|
|-------------|----------2--|----7-----7--|----7--------|
|-------------|-------------|-5-----5-----|-5-----5--4--|


  Q  Q  Q  Q    Q  Q  Q  Q    Q  Q  Q  Q    Q  Q  Q  Q
|-------------|-------------|-------------|-------------|
|-------------|-------------|----4-----4--|----4-----4--|
|----4-----4--|----4-----0--|-2-----2-----|-2-----2-----|
|-2-----2-----|-2-----2-----|-------------|-------------|


  Q  Q  Q  Q    E E E E E E E E   E E E E E E E E   Q  Q  H
|----4-----4--|-----------------|---2---4---5---6-|------------*|
|-2-----2-----|---2---4---5---6-|-----------------|-7----------*|
|-------------|-----------------|-----------------|------------*|
|-------------|-----------------|-----------------|------------*|


FIN!!!
- BUENO AQUI ABAJO ESTA EL SIGNIFICADO DE LAS LETRAS Y LOS SIGNOS...
- ESPERO QUE LES HAYA AGRADADO Y SOBRETODO QUE LE HAYAN ENTENDIDO...
- POR SI ALGUNA RAZON NO LE ENTIENDEN PUES HECHENME UN MAIL A: sNaKePiTs@guitar.com
- SI NO LE ENTIENDES, PUES BORRAR LAS LETRAS Y SE TE HARA COMO UNA TABLATURA NORMAL
- LOS VERE EN LA PROXIMA CANCION!!!...


NOTA!!!: PUEDEN UTILIZAR ESTA TAB PARA PUBLICARLA DONDE USTEDES
QUIERAN, PERO POR FAVOR LES RUEGO QUE ME DEN LOS CREDITOS COMO
TRANSCRIPTOR DE LA MISMA...GRACIAS!!!

NESTOR SADAO ARECHIGA CERVANTES sNaKePiTs@guitar.com


LEYENDA DE LAS NOTAS:

W = REDONDA     NOTA COMPLETA
H = BLANCA      MEDIA NOTA
Q = NEGRA       CUARTO DE NOTA
E = CORCHEA     OCTAVO DE NOTA
S = SEMICORCHEA DIECISEISAVA DE NOTA
T = FUSA        TREINTAIDOSAVA DE NOTA
X = SEMIFUSA    SESENTAICUATROAVA DE NOTA

a  =  ACCIACCATURA
+  =  LIGADURA
.  =  AUMENTA LA DURACION DE LA NOTA
.. =  AUMENTA LA DOBLE DE LA DURACION DE LA NOTA

LEYENDA DE LOS SIMBOLOS:

 h   - HAMMER-ON
 p   - PULL-OFF
 b   - BEND
 pb  - PRE-BEND
 r   - BEND RELASESI NO HAY UN NUMERO DESPUES DEL LA r, ENTONCES EL RELASE ES INMEDIATO
 /  - SLIDE
 s   - LEGATO SLIDE
 S   - SHIFT SLIDE
  - HARMONICOS NATURALES
[n]  - HARMONICOS ARTIFICIALES
nn - HARMONICO ATRAVEZ DE UN TAP
 ~   - VIBRACION
 tr  - TRINO
 T   - TAP
 TP  - TREM. PICKING
 PM  - PALM MUTING

/  - tremolo bar dip; n = amount to dip
 
  - TREMOLO BAR DOWN
 n/  - TREMOLO BAR UP
/n  - TREMOLO BAR INVERTED DIP
 =   - SONTENIENDO UN BEND; TAMBIEN ACTUA COMO UN CONECTOR PARA HAMMERS Y PULLS
 <>  - NIVEL DEL VOLUMEN
 x   - NOTA APAGADA
 o   - REPRESENTA UNA NOTA CORTADA


LEYENDA DEL PENTAGRAMA
 |  - COMPAS
||  - DOBLE COMPAS
||o - ES DONDE VA A COMENZAR CUANDO ALGO SE VA A REPETIR
o|| - ES DONDE VA A TERMINAR CUANDO ALGO SE VA A REPETIR
*|  - FIN DE LA CANCION
 :  - COMPAS LIBRE
 $  - SEGNO AL VER ESTE SIGNO, TENEMOS QUE RETROCEDER HASTA VER EL SIGNO ANTERIOR $...
 &  - CODA SIGNIFICA QUE DEBES PASAR LA SIGUIENTE SIGNO &

Fuente original ATAME [www.atame.org]
Colaborador original: sNaKePiTs [Nestor Sadao Arechiga Cervantes]

Fuente: tusacordes.com