a b c d e f g h i j k m n o p q r s t x v w y z 0-9

Desilusion

Los Apson

			
Intro.
             C#             F#        A
 e|---------|-----------------------|-------------|
 b|---------|-----------------------|-5b-5b-------|
 g|---------|-----6-s-4-s-4-------3-|-------6p4h6-|
 d|---------|-6-4-----------6-h-4---|-------------|
 a|---2-3-4-|-----------------------|-------------|
 E|-4-------|-----------------------|-------------|
                B             E
 e|-5-5-5-------7-|--------|--7--|
 b|-5-5-5-------7-|--------|--9--|
 g|-6-6-6-------8-|--------|--9--|
 d|-7-----------9-|--------|--9--|
 a|-7-----------9-|-----7--|--7--|
 E|-5------5-6--7-|-7-9----|--x--|

 E                   G#m
 Una pena estoy sintiendo
 A                  B
 dentro de mi corazón
 E                   G#m
 al sentirme tan distante
 A                   B
 de mi amor mi adoración.

 A           G#m
 Siento una gran desilusión
 A                     E G#m C#m
 al pensar en ti mi amooo-oh-or
      F#       F#7      A      B
 muy lejos te siento mi bieh-eh-en.

 E                   G#m
 Me consuelo al recordarte
 A                  B
 y al pensar que volveré
 E                   G#m
 Nuevamente de besarte
 A                  B
 ya jamás me apartare.

 A           G#m
 Siento una gran desilusión
 A                     E G#m C#m
 al pensar en ti mi amooo-oh-or
 A             B        E    E7
 muy lejos te siento mi bien.

A        Am
 Y ya feliz junto de ti
E          G#m
 que mas puedo desear
 A                  A,G#,G,F#m -Muy rapido-
 eternamente te amare
            A      B
 mi dulce amooo-oh-or

    Solo.
 e|---------|---------------------------------|---------------|
 b|---------|---------------------------------|-------0-4-3-2-|
 g|---------|-1-1-1-1-1-------1s4-4h1-------1-|-1-1-1-1-4-3-2-|
 d|-------2-|-----------4-2-4---------2-----2-|-2-2-2-2-------|
 a|-----7-2-|---------------------------4-2-2-|-2-2-2---------|
 E|-7-9-----|---------------------------------|---------------|

 e|---------|---|---------------------------|---------------|
 b|---------|-1-|---------------------------|-5-5-5-5-4-2---|
 g|---------|---|-1-1-------1s4-4h1-------1-|-6-6-6-6-4-2-2-|
 d|-------2-|---|-----4-2-4---------2-----2-|-------------4-|
 a|-----7-2-|---|---------------------4-2-2-|---------------|
 E|-7-9-----|---|---------------------------|---------------|

 e|-----------|-------------|-------0-----------|
 b|-5-5-5-5-5-|-5-4-2p1h2-4-|-2-2-2-2-2-----2---|
 g|-6-6-6-6-6-|-6-4-2p1h2-4-|-2-2-2-2-2-4-2---4-|
 d|-----------|-------------|-------------------|
 a|-----------|-------------|-------------------|
 E|-----------|-------------|-------------------|

 e|-------------------------|
 b|-----5-----5-----5-----5-|
 g|-5s6---5s6---5s6---5s6---|
 d|-------------------------|
 a|-------------------------|
 E|-------------------------|
      A           B            E     C#m
 Muy lejos te siento mi amor.
 A           B            E     C#m
 Muy lejos te siento mi amor.
 A           B            E     C#m
 Muy lejos te siento mi amor.
    Outro.
    E G   C    B E
 e|--------------0--|
 b|--------------0--|
 g|--------------1--|
 d|--------------2--|
 a|--------3-3-2-2--|
 E|-0-3--3----------|


          Explicacion de Acordes:
    E    779997
    G#m  466444
    A    577655
    B    799877
    C#m  446654
    F#   244322
    F#7  242322
    E7   022130
    Am   002210
    G#   466544
    G    355433
    F#m  244222

simbolos:
 b=bend=tocar la nota y subirla hacia nosotros para alargar el sonido
 s=slide=tocar la nota y deslisarla hasta la otra nota indicada
 h=hammer on=tocas la nota y dejas caer de golpe el dedo
             en la otra nota indicada.
 p=pull off= tocas la nota y levantas rapidamente el dedo
             para que suene la otra nota indicada.

Esta cansion lleba mas arreglos por ejemplo en los tres ultimos
renglones los acordes estan semiahogados.se toca la y si naturales
y Mi y Do sostenido menor no; explicación:
    A    002220
    B    224442
    E    006454
    C#m  006654
en el quinto parrafo antes del solo empieza tambien con la natural,
luego se pone La en el quinto traste antes de la parte que dice
muy rapido y termina ese parrafo con la y Si naturales.explicación:
    A    002220
    A    557765
    A    002220
    B    224442
Los Acordes por lo general durante toda la cansion son un rasgueo
hacia abajo y dos rasgueos hacia arriba y luego se toca la sexta
y quinta cuerda del acorde para que te de el bajo, cambias de acorde
y vuelves a hacer lo mismo durante casi toda la cansion.

En el intro,solo y Outro puse la guitarra que mas suena en cada uno
y el acorde sobre la tablatura para si lo quieren tocar a dos guitarras.


acabo de abrir un correo que si voy a contestar
ya que el que puse en atame es de mi hermana y
esta enfadada de que le pidan cansiones que no conoce
y en estos dias si todo sale bien voy a subir
cansiones a la red para que todos las podamos disfrutar
ya que hay paices donde ya es muy dificil conseguirlas.
 mi correo sera:  BayouNoise@hotmai.com
sientance libres de hcer contacto y espero les gusten
y les hallan sido utiles mis tablaturas.

21-06-05      Hermosillo,Son.

Fuente original ATAME [www.atame.org]<br>Colaborador original: eulalio lopez picos
[bomm20@hotmail.com]<p>Fuente: tusacordes.com</p>