a b c d e f g h i j k l m n o p q r s t u v w x y z 0-9

Besos Brujos

Los Acosta

			
1|-------------------------------------------------------------
2|-5-5--6-8--8-8-6-5---5-5-6-8---8-8-6-5-----------------------
3|---------------------------------------7-5--5-5-5-7--7-7-----
4|-------------------------------------------------------------

1|--------------------------------------------------
2|--5-5----------------------6-5--------------------
3|------7-5--5-5-5-7/---7-7-------------------------
4|--------------------------------------------------


                  C
No quiero que me beces no ves que estoy sufriendo
                  Dm
por culpa de tu amor
                      F                      G
lo que quiero es liberarme de esta cruel tortura
                 C
de este cruel dolor


                 C
Son esos besos brujos los que me han hechizado
               Dm
dañado el corazon
                 F                       G
tu tienes que dejarme tu tienes que olvidarme
                 C
esa es mi salvacion


        G        Am
Ya dejame tus besos son
           G         Am
una maldicion tus besos son
            F          G
como una cadena de desdicha
     C
y dolor


        G        Am
Ya dejame tus besos son
           G         Am
una maldicion tus besos son
                 F          G
me llevas al infierno y al vacio
        C
de tu amor


1|-------------------------------------------------------------
2|-5-5--6-8--8-8-6-5---5-5-6-8---8-8-6-5-----------------------
3|---------------------------------------7-5--5-5-5-7--7-7-----
4|-------------------------------------------------------------

1|--------------------------------------------------
2|--5-5----------------------6-5--------------------
3|------7-5--5-5-5-7/---7-7-------------------------
4|--------------------------------------------------


Si tu eres mujer buena olvidame pa siempre
eso me ayudara
tu tienes que apartarte tu tienes que ayudarme
y darme libertad

Ya dejame........

1|-------------------------------------------------------------
2|-5-5--6-8--8-8-6-5---5-5-6-8---8-8-6-5-----------------------
3|---------------------------------------7-5--5-5-5-7--7-7-----
4|-------------------------------------------------------------

1|--------------------------------------------------
2|--5-5----------------------6-5-----6-5------------
3|------7-5--5-5-5-7/---7-7--------------7-5-7-5-5--
4|--------------------------------------------------

Fuente original ATAME [www.atame.org]
Colaborador original: Jorge Sistos [sistos400_2@hotmail.com]

Fuente: tusacordes.com