a b c d e f g h i j k l m n o p q r s t u v w x y z 0-9

Post-crucifixion

Los 7 Delfines

			
Intro: 8 veces

e ------------------------------------------------
B ------------------------------------------------
G --------------5---5-----------------------------
D ------------5---7---7-5-7-5----5----------------
A -----5-6-7-------------------7---7-5-7-5--------
E -5-8--------------------------------------8-5---

El punteo se repite dentro de la canción

En algunas partes de la canción, sobre el punteo 
anterior,la otra guitarra hace el siguiente punteo:

e ------------------------------------------------
B ---------------8---8----------------------------
G -------------7---9?--9-7-9-7----7---------------
D ------7-8-9-------------------9---9-7-9-7-------
A -7-10-------------------------------------10-7--
E ------------------------------------------------

Fuente original ATAME [www.atame.org]
Colaborador original: Diego Ferrando [diego_l7d@hotmail.com]

Fuente: tusacordes.com