a b c d e f g h i j k l m n o p q r s t u v w x y z 0-9

Nubes

Los 7 Delfines

			
Base:

e----------------------
b----------------------
g-4-4-4-4-4-4-4-4-4-4--
d-4-4-4-4-4-4-4-4-4-4--
a----------------------
e----------------------


e---------------------------------
b---------------------------------
g-7-4-7-4-7-7-9---7-4-7-4-7-7-2---
d-7-4-7-4-7-7-9---7-4-7-4-7-7-2---
a---------------------------------
e---------------------------------


Verso con:

e----------------
b----------------
g-7-4-7-4-7-7-9--
d-7-4-7-4-7-7-9--
a----------------
e----------------

Estaba en una nube
Segui sin gritar
Apenas me detuve
Hubo emergencia

[Pre Coro]

e--------------
b--------------
g-2-2-2-2-3-5--
d-2-2-2-2-3-5--
a--------------
e--------------

Suena bien densa

[Estribillo]
e------------------
b------------------
g-6-6-6-6-7-7-7-7--
d-6-6-6-6-7-7-7-7--
a------------------
e------------------

Base la otra guitarra un riff tipo rock and roll en B

e---7-----
b---7-----
g-9estira

[Verso]
Supo donde estube
Fui a preguntarle
Si la decencia es peligrosa

[Pre Coro]
Es igual, es igual
Suena bien densa
No esta mal, no esta mal

[Estribillo]		Em
Por lo que vi no es una nube

[Base] X2

[Verso]
Veamonos el lunes
Hoy no puedo mas
Alucino estrellas

[Pre coro]
Es igual, es igual
Suena bien densa
No esta mal, no esta mal

[Estribillo]		Em
Por lo que vi, no es una nube nube


[Sigue con la base hasta el final]

Fuente original ATAME [www.atame.org]
Colaborador original: Tomas Anello [anello90210@yahoo.com]

Fuente: tusacordes.com