a b c d e f g h i j k l m n o p q r s t u v w x y z 0-9

Escalera Al Cielo

Led Zeppelin

A
			






INTRO:  
      Am    E6/G#   C/G     Bm7   FMaj          G/B A5
   e-----5--7----7--8----8--2---2-0-------0---------------|------------------ 
   B----5-----5-------5-------3-----1---1---1-------------|------------------
   G---5-------5--------5------2------2-------2---0--2-2--|------------------
   D--7-----6-------5-------4-----3--------------------2--|------------------
   A----------------------------------------------2--0-0--|0--3A8--7-------
   E------------------------------------------------------|------------------
   ESTA INTRODUCCION SE REPITE UNA VEZ MAS HASTA LA LINEA 
2°PARTE
    G/B    C         Bm7      FMaj7          G/B   C         G       Dsus4-D
   e-------------0---2-----2--0------0------|----------------3----3----3A2-2
   B-------------------3--------1-----------|------1------1--------------3---3
   G------------0--------2--------2----2----|---------0--------4-------2------
   D----------2------4--------3-------------|-----------2-------5------0-----0
   A--0-2--3------------------------------0-|0--2--3--------------------------
   E----------------------------------------|----------------3----------------
                 
SE REPITE LA PARTE QUE ESTA ANTES DE ESTA LINEA, DESPUES TOCA ESTO:

     G/B    C            D       FMaj7
   e---------------------3----3--0-0-0----------------------------------------
   B--------------1--------3-----1-1-1----------------------------------------
   G------------0------------2---2-2-2----------------------------------------
   D----------2----------0-------3-3-3----------------------------------------
   A--0-2---3-----------------------------------------------------------------
   E--------------------------------------------------------------------------
 

   A:ARRASTRAR  

Fuente: tusacordes.com