a b c d e f g h i j k m n o p q r s t x v w y z 0-9

Transparente

Las Pelotas

			
intro:

1-------------------------------------------
2-------------------------------------------
3----------------5--------------------------
4---55-----3-55------55-----35-----8--8--7--
5--------5---------------5------------------
6-------------------------------------------

1---------------------
2---------------------
3------------------5--
4---55----3-5-5-5-----
5-------5-------------
6---------------------

1-------------------------------------------------------------
2-------------------------------------------------------------
3-------------------------------------------------------------
4---55~--3-5---------77~-77575~---------77~--77575~-----------
5------5-----------------------------8--7--5--------------8--9
6-------------------------------------------------------------

G              C
Haceme transparente,
G                C
decime por donde es,
G                 C
los huecos de la mente,
G               C
confunden al andar,
G                C
no es facil escucharte,
   G                  C
no es, habiendo tanto dolor,
F            G
donde es que estas?   X3
G
Los dias se arratran,

y no es un cuento,
C
cuando te quiero sentir,
G
es el camino o la trinchera,
C
para llegar a vos,
G
es el amor la respuesta,
C
o solo existes en la cabeza,
G
revolucion en los corazones,
C                   G
la frace linda para decir,
F            G
donde es que estas.X3

Fuente original ATAME [www.atame.org]<br>Colaborador original: betoon
[betoonargento@hotmail.com]<p>Fuente: tusacordes.com</p>