a b c d e f g h i j k l m n o p q r s t u v w x y z 0-9

Sabina Y Piazzola

Las Pastillas Del Abuelo

Dm
Cm
Bbm
F
C
G#
Bb
			
tramo 1

     Dm               Cm             Bbm
 e|-----------------------------------------1----1-----1----------|
 B|---------6---------------4----------------------------2--------|
 G|-----7-----7-----------5---5-----------3---3----3-------3------|
 D|---7---7-----7-------5-------5-------3------3-----3------------|
 A|--5------------5---3-----------3---1---------------------------|
 E|---------------------------------------------------------------|

tramo 2

      Dm               Cm             Bbm
 e|---------5--------------3----------1---------------------------|
 B|-----------6-------------------------1-----3-------------------|
 G|-----7-------7--------5----5-----------3---3-------------------|
 D|---7---7-------7-----5-------5-----------3---------------------|
 A|-5-----------------3-----------3-------------------------------|
 E|---------------------------------------------------------------|

tramo 3

      Dm               Cm             Bbm
 e|---------5-----------------3---------------1-----1-----1-------|
 B|-----------6-----------------4---------------------------2-----|
 G|-----7-------7---------5-------5---------3---3-----3-------3---|
 D|---7---7-------7-----5---5-------5-----3-------3-----3---------|
 A|-5-----------------3-----------------1-------------------------|
 E|---------------------------------------------------------------|



                      TRAMO 3
Ella buscaba en su armario, porque había perdido la razón,
                      TRAMO 2
yo exprimía diccionarios, para poder hacer una canción.
                      TRAMO 3
No me acuerdo muy bien cuántos besos dejamos en cada esquina,
                      TRAMO 2                                  F
pero imposible olvidarme de aquel cuarto donde aquella noche subió
          C
la adrenalina.


       G#
se juntaron Rosario y la Capital,
       Bb
se juntaron el bien y el mal,
       F
se juntaron dos almas en una sola
       C
se juntaron Sabina y Piazzolla.


       G#
Se juntó una religión que era puro corazón
       Bb
con otra que nunca existió,
       F
se juntaron dos camas y no alcanzaban
       C
para tanto fuego, tanta acción,
             D5  C5  A#5    D5  A#5  C5
tanto descontrol.

D5  C5  A#5    D5  A#5  C5

 D5             C5
Elegimos el colchón más chico
 A#5                    A#5 A5 A#5
y pareció de dos plazas,
 D5                    C5                   A#5
cuando el colchón terminó bienvenido fue el piso
   A#5
del comedor de su casa.


D5           C5
A cada beso caía una estrella,
 A#5
cada arañazo calmaba el dolor,
 D5                  C5
cuando me acuerdo de ella
        A#5
levanto mi vaso y brindo
                    F
adonde quiera que estés
              C
por nuestra canción.


despues les dejo el punteo ;]
saludos

.com/empastillaadoFuente: Tus acordes