a b c d e f g h i j k l m n o p q r s t u v w x y z 0-9

Sabina Y Piazzola

Las Pastillas Del Abuelo

			
INTRO:

         D               C           B    
e|---------1-------------0-----------1---- 1-----1-------|
B|-----3-----3---------1---1-------3---3-----3-----3-----|
G|---2---2-----2-----0-------0---3-------3-----3-----3---|
D|-0-------------0-------------------------------------3-|
A|-----------------3-----------1-------------------------|
E|-------------------------------------------------------|

         D               C        B    
e|---------1-------------0-----1-------1-----|
B|-----3-----3---------1---1-----3-------3---|
G|---2---2-----2-----0-------0-----3-------3-|
D|-0-------------0-------------------3-------|
A|-----------------3-------------------------|
E|-------------------------------------------|





e|---------------------------------------1-----1-----1-------|
B|---------6---------------5-----------3---3-----3-----3-----|
G|-----7-----7---------5-----5-------3-------3-----3-----3---|
D|---7---7-----7-----5---5-----5---------------------------3-|
A|-5-------------5-3-------------3-1-------------------------|
E|-----------------------------------------------------------|  
  Ella buscaba en su armario, porque había perdido la razón,

e|---------------------------------1-------1-----|
B|---------6---------------5---------3-------3---|
G|-----7-----7---------5-----5---------3-------3-|
D|---7---7-----7-----5---5-----5---------3-------|
A|-5-------------5-3-------------3---------------|
E|-----------------------------------------------|
  yo exprimía diccionarios, para poder hacer una canción.

e|---------------------------------------1-----1-----1-------|
B|---------6---------------5-----------3---3-----3-----3-----|
G|-----7-----7---------5-----5-------3-------3-----3-----3---|
D|---7---7-----7-----5---5-----5---------------------------3-|
A|-5-------------5-3-------------3-1-------------------------|
E|-----------------------------------------------------------|
  No me acuerdo muy bien cuántos besos dejamos en cada esquina,

e|---------------------------------1-------1-----|
B|---------6---------------5---------3-------3---|
G|-----7-----7---------5-----5---------3-------3-|
D|---7---7-----7-----5---5-----5---------3-------|
A|-5-------------5-3-------------3---------------|
E|-----------------------------------------------|
  pero imposible olvidarme, de aquel cuarto donde aquella noche 

  F
subió
           C
la adrenalina.

         G
Y se juntaron Rosario y la Capital,
       B
se juntaron el bien y el mal,
       F
se juntaron dos almas en una sola
       C
se juntaron Sabina y Piazzolla.

       G
Se juntó una religión que era puro corazón
       B
con otra que nunca existió,
       F
se juntaron dos camas y no alcanzaban
      C
para tanto fuego, tanta acción,
              D5 C5 A#5   D5 A#5 C5
tanto descontrol.

D5 C5 A#5   D5 A#5 C5

 D5              C5
Elegimos el colchón más chico
 A#5               A5 A#5 C5
y pareció de dos plazas,
 D5                     C5                   A#5
cuando el colchón terminó bienvenido fue el piso
 A5 A#5 C5
del comedor de su casa.


 D5           C5
A cada beso caía una estrella,
 A#5
cada arañazo calmaba el dolor,
 D5                  C5
cuando me acuerdo de ella
        A#5
levanto mi vaso y brindo
                  F
adonde quiera que estés
             C
por nuestra canción.

Se juntaron Rosario y la Capital... 



Acordes:

             EADGBe
         D5  x577xx
         C5  x355xx
         A#5 x133xx
         A5  x022xx



Los acordes traten de tocarlos con cejilla..

Cualquier duda, pablo_lomas_10@hotmail.com

Fuente: tusacordes.com