a b c d e f g h i j k l m n o p q r s t u v w x y z 0-9

Miedo A Equivocarme

Las Pastillas Del Abuelo

C
F
Fm
G
A
			
Corregì la intro que estaba incompleta y un acorde q faltaba que es ese
Sol con el arreglo ese que esta aclarado abajo que queda muy bien...
bueno que lo disfruten :] saludos..

INTRO [sigue los acordes de la canción arpegiados asì]

       C        C7        F         Fm        C        G        C

e-|-----0---|----0---|-1---1---|-1---1---|---0----|---3/5---|---0---|
B-|---1--1-1|--1--1-1|-1----1--|-1----1--|--1-1-1-|--0----0-|--1-1-1|
G-|----0--0-|---4--4-|-2--1--2-|-1--1--1-|-----0--|------0--|-----0-|
D-|---------|--------|-3-------|-3-------|--------|---------|-------|
A-|-3-------|-3------|-3-------|-3-------|-3------|---------|-3-----|
e-|---------|--------|-1-------|-1-------|--------|-3-------|-------|

 C7

--0--|------|
--1--|------|
--4--|------|
--2--|--0-2-|
--3--|-3----|
--x--|------|

       C                   C7
Me han dicho que hay un lugar
          F                   Fm
donde el sol del mediodía no quema,
          C                G  [G*]
donde las noches de luna llena
                C
no te hacen llorar.

                           C7
Me han dicho que en ese lugar
      F                      Fm
te la pasas recostada en la arena,
          C                G  [G*]
poniendo avisos, mujer condena
                 C
al que la haga sudar.

                         C7
No sé por qué esa necesidad
      F                         Fm
de viajar tan lejos de la realidad,
        C                         G
poniéndote una caretas en el corazón

            C       C7
      E-|---0----|---0-----
      B-|----1-1-|----1-1--
      G-|--0--0--|--4--4---
      D-|--------|---------
      A-|-3------|-3-------
      E-|--------|---------
pretendes olvidar.

            C
  E-|-0----0----|---
  B-|-1--1--1---|---
  G-|-0---0--0--|---
  D-|-2---------|---
  A-|-3---------|-3-
  E-|-x---------|--- C7
El pasacalle en Campichuelo
          F                    Fm
aquellas noches que bajo un pañuelo
              C           G
me decías 'Mi amor, yo nunca
              C[arpegiado]
te voy a cambiar'.

ESTRIBILLO

C7
  Pre fie ro
F            Fm
naufragar en este mar de

      E-|------------------
      B-|------------------
      G-|-0--0--0--0-------
      D-|------------------
      A-|--3--3--3--3------
      E-|------------------
    C                      A 
corcheas lo - cas - de - atar
F         G          C
hasta tus besos olvidar.

C7
  Pre fie ro
F          Fm
perder el tiempo tomando
      C               A 
unas copas de bar en bar
F        G           C
y nunca nunca despertar.

-------[INTRO]-------

    C                      C7
Tendría que haberle hecho caso a Joaquín
        F                    Fm
cuando dijo lo que dijo esa vez
              C
cuando esa mujer
   G[G*]             C      C7
se iba dándole la espalda.

    C                      C7
Tendría que haberle hecho caso,
        F
y así saber bien
     Fm           C
cómo era en realidad
    G[G*]                  C          C7
tu frente, tu lengua y tu falda.

     C                      C7
Por suerte me subí a un tranvía
        F                         Fm
justo cuando me iba a atar a las vías,
                C
que me dijo 'Campeón,
     G[G*]                C        C7
puedo ayudarte en tu elección'.

  C                             C7
Pero te advierto que este tren consejero,
        F                      Fm
que no sabe lo que es mirar atrás,
              C             G             C
me ha dicho que en tu estación no va a parar.

ESTRIBILLO

C7
  Pre fie ro
F            Fm
naufragar en este mar de

      E-|------------------
      B-|------------------
      G-|-0--0--0--0-------
      D-|------------------
      A-|--3--3--3--3------
      E-|------------------
    C                      A 
corcheas lo - cas - de - atar
F         G[G*]      C
hasta tus besos olvidar.

C7
  Pre fie ro
F          Fm
perder el tiempo tomando

       E-|-------------
       B-|-------------
       G-|-0--0--0--0--
       D-|-------------
       A-|--3--3--3--3-
       E-|-------------
      C               A 
unas copas de bar en bar

                    E-|-------------
                    B-|-------------
                    G-|-0--0--0--0--
                    D-|-------------
                    A-|--3--3--3--3-
                    E-|-------------

F        G[G*]       C              C7
y nunca nunca despertar.

F        G           C  [G-C]
y nunca nunca despertar.

    [G*]
e-|--5--
B-|--0--
G-|--0--
D-|--0--
A-|--2--
E-|--3--

Fuente: Lacuerda