a b c d e f g h i j k l m n o p q r s t u v w x y z 0-9

Locura Y Realidad

Las Pastillas Del Abuelo

A
B
C
D
Em
G
			
¡¡¡HOLA LOCOOOOS!!! SOY ALEJANDRO LOBO Y ACA LOS DEJO CON "LOCURA Y REALIDAD" DE LAS PASTILLAS DEL ABUELO.

 


E---0--0--|--0--0--|-------------------------------
B---------|--------|-------------------------------
G---------|--------|-------------------------------   A
D---2--2--|--2--2--|-------------------------------  
A---------|--------|-------------------------------
e---------|--------|--1-2-3------------------------


E---3--3--|--3--3--|-------------------------------
B---------|--------|-------------------------------
G---------|--------|-------------------------------   B
D---0--0--|--0--0--|-------------------------------
A---------|--------|---1-2-3-----------------------
e---------|--------|-------------------------------


E---2--2--|--3-2--0h2-2h0--------------------------
B---------|----------------------------------------
G---------|----------------------------------------   C
D---0--0--|--0-0----------------------------------- 
A---------|----------------------------------------
e---------|----------------------------------------

    
E---2-2--|--2--|--2--------------------------------
B--------|-----|-----------------------------------
G--------|-----|-----------------------------------   D
D---0-0--|--0--|--0--------------------------------
A--------|-----|-----------------------------------
e--------|-----|-----------------------------------



INTRO: PUNTEO: ABC
                 AX2 BCD

       
      RASGUEO:  Em G D7 (Dsus4-D7) Em    X2


 
 Em                       G    
   Se te apretó el estómago,
                                 D7  
   Pusiste las cuatro ruedas al mango y 
                     Em
   No supiste como frenar.


    
 Em                         G                                 
   La luz de tu luna se apagó,
                             D7
   No te suíste bancar este tango y
                         Em
   La dama de negro te quiso amparar.


       Em
   Porque        
        G                                 D7 
   Decidiste tomar ese atajo hacia el infierno,
                                  Em 
   Donde todo es más gris, donde todo es invierno
           Em              G
   Y no pudiste decirle que no 
          D7                      Em
   A esa línea que separa la vida en

   Locura y realidad.



  ABC
  AX2 BCD
 

   Em G D7 Em
   Em G D7 (Dsus4-D7) Em



 Em                       G
   Ya no había más flores
                                   D7
   Que crecieran en tus primaveras.
                                       Em
   Ya no tenías el calor de ninguna pollera.



 Em                      G
   Ninguna cuota de amor
                              D7
   Que te brindara el destino.
                                           Em
   Ninguna piedra que pudiera cambiar tu camino.


      
        Em  
   Y por eso,
        G                                   D7 
   Decidiste apagar este blues sembrando tu cruz
        Em
   Sin rosas.
       Em            G                    D7 
   Y pedías pala, pedíste un apala para cabar 
            Em
   Tu fosa en 
                      Em
   Este bosque donde siempre ter encontrare.


   Em G D7 (Dsus4-D7) Em   X2
 
   Em G C



  
ACORDES: Em   G   D7  Dsus4  C

          0   3   2    3     0
          0   0   1    1     1
          0   0   2    2     0
          2   0   0    0     2
          2   2   X    X     3
          0   3   X    X     X



  
 
 POR CUALQUIER DUDA MI DIRECCIÓN ES: ROCK_ALB@HOTMAIL.COM


 CHAU

 AI SE VEN  
      
                 

Fuente: tusacordes.com