a b c d e f g h i j k l m n o p q r s t u v w x y z 0-9

Locura Y Realidad (intro)

Las Pastillas Del Abuelo

Am
G
D
			
Am         Am         G         G         D
e-----0----0-----0-----0--|----3----3----3----3--|---2----2----3---
B-----1----1-----1-----1--|----0----0----0----0--|---3----3---[3]--
G-------------------------|----------------------|-----------------
D-------------------------|----------------------|-0----0---------
A---0----0-----0-----0----|----------------------|-----------------
E-------------------------|--3----3----3----3----|-----------------

                   Am
e--2----0----2---|-----0------0--|
B-[3]--[3]--[3]--|-----1------1--|
G----------------|---------------|
D----------------|---------------|  
A----------------|--0------0-----|
E----------------|---------------|

SE REPITE TODO 3 VECES, LA TERCERA CON RASGUIDO.



[3]...Cuando el numero aparece así es opcional tocarlo o no.Fuente: Tus acordes