a b c d e f g h i j k l m n o p q r s t u v w x y z 0-9

Lo Mas Fino

Las Pastillas Del Abuelo

			
Esta es la intro del saxo

e|--10-8-7-8-10---10-8-7-10-8-3---12-10-8-10-12-8-10-15-10-
B|---------------------------------------------------------
G|---------------------------------------------------------
D|---------------------------------------------------------
A|---------------------------------------------------------
E|---------------------------------------------------------

G
Nunca vio la luz
Am
no sintió el calor
C
no sufrió el dolor
G
no vivió el morir.
G
Muy grande la cruz
Am
muy chico el honor
C
enana actitud
G
de vivir mejor.

G                      Am
Si encontrás algo más fino
Am                   C
que el filo de tu silencio
C                 G
sólo entonces te amaré.

G               Am
Rebuscada tu respuesta
Am              C
tanto como tu cabeza
C               G
tenías que ser mujer.

G                    Am
Yo sólo quería unos mimos
Am                  C
un suspiro de tu ombligo
C             G
una sopa con sabor.

G             Am
Eras un rompecabezas
Am                C
disfrazado de princesa
C            G
eras puro rocanrol.


F       C
De este amor
G
que nunca vio la luz
Am
no sintió el calor
C
no sufrió el dolor
G
no vivió el morir.
G
Muy grande la cruz
Am
muy chico el honor
C
enana actitud
G
de vivir mejor.


G                      Am
Ya había encallado mi barco
Am                 C
En medio de tu pollera
C                  G
Nunca fui buen capitán.

G                    Am
Aunque a veces digo basta
Am                  C
en las noches de subasta
C                  G
me la juego hasta ganar.

G             Am
Como toda señorita
Am              C
era bien histeriquita
C                   G
eras una ola en el mar.

G                      Am
Siempre cinco para el peso
Am                        C
siempre abrazo, nunca un beso,
C                    G
y ahora ni torta ni pan.


F       C
Ni este amor
G
que nunca vio la luz
Am
no sintió el calor
C
no sufrió el dolor
G
no vivió el morir.
G
Muy grande la cruz
Am
muy chico el honor
C
enana actitud
G
de vivir mejor.


G                  Am
Sólo me quedan recuerdos
Am                 C
de ese sueño momentáneo
C                   G
viejos tiempos de adicción.

G                 Am
A planteos poco cuerdos
Am                 C
al placer del desengaño
C              G
a la dulce confusión.

G                  Am
Sólo me queda el consuelo
Am                  C
de saberme muy tranquilo
C                  G
yo ya sé que la pelié.

G                      Am
Me pensaba que era el ciego
Am                      C
me pensaba que era el pueblo
C                    G
que era el tuerto y que era el rey.


F       C
De este amor
G
que nunca vio la luz
Am
no sintió el calor
C
no sufrió el dolor
G
no vivió el morir.
G
Muy grande la cruz
Am
muy chico el honor
C
enana actitud
G
de vivir mejor.

Y el solo del saxo final:

e|--10-8-7-8-10---10-8-7-10-8-3---12-10-8-10-12-8-10-15-10-
B|---------------------------------------------------------
G|---------------------------------------------------------
D|---------------------------------------------------------
A|---------------------------------------------------------
E|---------------------------------------------------------

e|--12-10-8-7-10-----7-3--
B|----------------8-------
G|------------------------
D|------------------------
A|------------------------
E|------------------------


Fuente: tusacordes.com