a b c d e f g h i j k l m n o p q r s t u v w x y z 0-9

Lo Más Lindo

Las Pastillas Del Abuelo

			
Riff 1
e|--------------------------|---------------------------------|
B|-------0------------0-----|--------0-------------0----------|
G|-----2---2--------2---2---|------2---2---------2---2--------|
D|---0-------0----0-------0-|----0-------0-----0-------0------|
A|--------------------------|---------------------------------|
E|-3------------3-----------|-1--------------1----------------|

                        Riff 2
e|--------------------------|-----------------0------------|
B|-------0------------0-----|--------1--3--1----1----------|
G|-----2---2--------2---2---|------0--------------0--------|
D|---0-------0----0-------0-|----2-------------------------|
A|--------------------------|--3---------------------------|
E|-0------------0-----------|------------------------------|

B)
Riff 1
Lo más lindo del mar es cuando por completo
Riff 2
lo moja la hermosura de tu pelo.
Riff 1
Lo gracioso del sol es cuando no ve nada,
Riff 2
le encandila los ojos la luz de tu mirada.

A)
Am                     F
Lo lindo de la noche y las estrellas
F                          G
es que tu rostro habita en todas ellas,
Am                          F   G
lo lindo de mi vida es el saber
Am G F                 G Am G F     
que la gobierna tu ser.

B)
Lo lindo de tocarte es que me mata,
no me das tiempo ni de entrar en coma,
lo más lindo del viento es cuando intenta
ir de la mano junto con tu aroma.

A)
Pero eres para mí como la luna,
que podría contemplarte hasta ser viejo,
radiante y más hermosa que ninguna
pero siempre tan lejos.

Fuente: Tusacordes