a b c d e f g h i j k l m n o p q r s t u v w x y z 0-9

La Rosarina

Las Pastillas Del Abuelo

Dm
C
Cm
			
INTRO: Dm     C     A#
      Dm  C  La#


Dm Dm
|--1----------------1-----------------------------------|
|--3-----------3------3----3----------------------------|
|--2--------2----2------2-------------------------------|
|--0-----0----------------------------------------------|
|--0----------------------------------------------------|
|--0----------------------------------------------------|

C Cm
|--0-------------------0--------------------------------|
|--1-------------1---------1----1-----------------------|
|--0----------0----0---------0--------------------------|
|--2----------------------------------------------------|
|--3-----3----------------------------------------------|
|--0----------------------------------------------------|

A# La#M
|--1--------------1----------------------1--------------|
|--3--------3------3-----3-------3----------3---3-------|
|--3-----------3------3--------------3---------3--------|
|--3-----3---------------------3------------------------|
|--1----------------------------------------------------|
|--1----------------------------------------------------|

Dm                   C                    A#
Ella buscaba en su armario, porque habia perdido la razon
Dm                   C                    A#
yo exprimia disccionarios, para poder hacer una cancion
Dm                   C                    A#
no me acuerdo muy bien cuantos besos dejamos en cada esquina
Dm                   C                    A#
pero imposible olvidarme, de aquel cuarto donde aquella noche
F            C           
subio,la adrenalina
 
       G
Y se juntaron rosario y la capital
      A#
se juntaron el bien y el mal,
      F                                  C
se juntaron dos almas en una sola, se juntaron sabina y piazola

     G                                          A#
se junto una religion que era puro corazon con otra que nunca existio
     F                                    C
se juntaro dos camas y no alcanzaba para tanto fuego tanta accion
           Dm Dm C A# x2
tanto descontrol 


Dm              C             A#        
elejimos el colchon mas chico, y parecio de dos plazas

Dm                     C             A#
cuando el colchon termino bienvenido fue el piso del comedor de su casa
Dm              C               A#
a cada beso caia una estrella, cada arañazo calmaba el dolor

Dm                  C              A#
cuando me acuerdo de ella, levanto mi baso y brindo a donde 
           F                   C
quiera que estes, por nuestra cancion

G
se juntaron rosario y la capital

       A#
se juntaron el bien y el mal

      F                                 C
se juntaron dos almas en una sola, se juntaron sabina y piasola

      G                                       A#
se junto una religion que era puro corazon con otra que nunca existio


    F                                      C
se juntaron dos camas y no alcanzaba para tanto fuego tanta 
                   Dm Dm C A# x2
accion tanto descontrol

Fuente: Tusacordes