a b c d e f g h i j k l m n o p q r s t u v w x y z 0-9

La Cerveza

Las Pastillas Del Abuelo

			
Intro:

E-2--------2h3p2--3/5-0-----0-------3-0-----2-0-----|
B-3------3--------------------2---------2-------2---|
G-2----2-----------------2----------------2-------2-|
D-0--0-------------------2-------2------------------|
A------------------------0-------0------------------|
E---------------------------------------------------|

E-----3---3/5--3p2-2-0-----2--------------0-------|
B-----3---3/5--3---3-0-------3--------2-----2---2-|
G-----0-----------------4------4---2----2-----2---|
D-0---------------------4----------2----------2---|
A-2---------------------2-------------------------|
E-3-----------------------------------------------|

E--------2h3p2-----2h3p2------3/5-0---------0-----3-0-----2-0---|
B-3--3---------3---------3--------------2-----2-------2-------2-|
G-2----2---------2---------2---------2----2-----2-------2------2|
D-0----------------------------------2--------------------------|
A------------------------------------0--------------------------|
E---------------------------------------------------------------|

E-----3---3/5--3p2-2-0-----2--------------0--------|
B-----3---3/5--3---3-0-------3--------2-----2----2-|
G-0---0------------------4------4---2---2-----2----|
D-0---0------------------4----------2--------------|
A-2----------------------2-------------------------|
E--------------------------------------------------|


D          A               G
Cuando la cerveza se calienta demasiado,
Bm                  A
el cenicero esta lleno y el paquete vacío,
D          A               G
pierdo la cabeza y me siento un desgraciado,
          Bm        A
como quien tiene por hobby al vino del estío.

Em            G
Traté de que el corazón
               D
no me diera explicación
           A
para no derramar
lágrimas en tu honor.

Em           G
Traté de que la razón
                 D 
me llevara al buen camino,
                A 
ella me presentó al vino
              C-G
al que agradecido estoy.

intro:D-A-G-Bm-A

Bm            D
Y hoy resulta que ayer
             A 
la princesa se hizo reina,
                G
aquel cepillo sin dientes
hoy es el que mejor peina.

Bm            D
Ya no deshace el somier
              A
aquel amor tan fugaz,
                G
que en ese cuarto de hotel
se declaraba inmortal.

Cuando las estrellas iluminan mi pasado
puedo verte de rodillas pidiéndome que vuelva,
hoy en mi ventana veo llover sobre mojado,
me siento un niño indefenso en medio de la selva.

Traté de que mis ojos
no te vieran tan lejos,
pero siempre sera así
mi triste porvenir.

Traté de que mi pasión
se perdiera entre el montón,
pero sienpre será igual,
siempre se volverá al primer amor.

Fuente: Tusacordes