a b c d e f g h i j k l m n o p q r s t u v w x y z 0-9

Historia

Las Pastillas Del Abuelo

			
Las Pastillas del Abuelo - Historias

Intro


E---2---------2-----------2---------2----2----2-------2--------2---2--
B-----3---3-----3---3------3---3----3----3-----3--3----3--3----2---2--
G------02--------02---------02------2----2------4-------4------0---0--
D-0---------0----------0---------0------------------------------------
A---------------------------------------4----2--------2---------------
E------------------------------------------------------------3--------



E-------------------
B-------------------
G-------------------
D------0-----0---0--      X 2
A--0-2---0-2---2----
E-------------------

en las estrofas toca asi

E---2---2---2---2---2---2---2---2---2---2---2---2---2---2---2---2-----
B---3---3---3---3---3---3---3---3---3---3---3---3---2---2---2---2-----
G---2---2---2---2---2---2---2---2---4---4---4---4---0---0---0---0-----
D---------0-------0-------0-------------------------------------------
A-----0-------0-------0-------4---2-------2-----------2-------2-------
E-------------------------------------2-------2---3-------3-----------

A un cadete acostumbrado a las corridas

la verguenza ya le pisa los talones

lamentando el precio de sus confeciones

va esquivando ejecutivos por florida

aqui empieza el rasguido rasguido
Em                   G
mientras cruza sin mirar las avenidas
D                            A
se martilla la cabeza sin piedad
Em                   G
vuelve con los ojos llenos de perdon
        D
pero es demasiado tarde
   Bm
y ella le da un beso de esos
        Em            A
que humillan a la soledad


E---2---------2-----------2---------2----2----2-------2--------2---2--
B-----3---3-----3---3------3---3----3----3-----3--3----3--3----2---2--
G------02--------02---------02------2----2------4-------4------0---0--
D-0---------0----------0---------0------------------------------------
A---------------------------------------4----2--------2---------------
E------------------------------------------------------------3--------



E-------------------
B-------------------
G-------------------
D------0-----0---0--
A--0-2---0-2---2----
E-------------------

E---2---2---2---2---2---2---2---2---2-
B---3---3---3---3---3---3---3---3---3-
G---2---2---2---2---2---2---2---2---4-
D---------0-------0-------0-----------
A-----0-------0-------0-------4---2---
E-------------------------------------

E--2---2---2---2---2---2---2---2--------
B--3---3---3---2---2---2---2---2--------
G--4---4---4---0---0---0---0---0--------
D------------------------------------0--
A----2-----------2-------2--------02----
E2-------2---3-------3-------3----------

ahora toca igual que las primeras estrofas


por el centro todos conocen la historia

del mas pillo y la mas bella del condado

y aunque tiene momentos de poca gloria

es un cuento que merece ser contando

rasguido

Em                   G
cuando el amor se tomo unas vacaciones
D                              A
la vida le dio milonga y el bailo
Em                   G
nunca le dijo que no a otros rocanroles
     D                                 Bm                 Em
pero Stif hai Vogan fue testigo de esa magia que los condeno
A                  D              G          A
a vivir eternamente entre el tedio y la pasion
D          G        A
el instinto y la razon
      D          G          Bm              A
entre la perseverancia y la cruel resignacion
    D             G              A
esa magia que nos los va dejar ser
    D
dos amantes del monton

E---2---------2-----------2---------2-
B-----3---3-----3---3------3---3----3-
G------02--------02---------02------2-
D-0---------0----------0---------0----
A-------------------------------------
E-------------------------------------

E---2----2-------2--------2---2--
B---3-----3--3----3--3----2---2--
G---2------4-------4------0---0--
D--------------------------------
A--4----2--------2---------------
E-----------------------3--------


E------------------------2----------2-----------2------------------
B-------------------------3---3------3---3-------3---3-------------
G--------------------------02---------02----------02---------------
D------0-----0---0---------------0-----------0----------0--0-------
A--0-2---0-2---2----------------------------------------------4-2-0
E------------------------------------------------------------------

este punteo lo hace hasta cuando dice "ese que le hacia" despues
queda en silencio cuando dice "sangrar por la herida"

E--------------------2---2---2---2--------------------
B----3---3---3---3---2---2---2---2----3---3---3---3---
G----3---3---3---3---0---0---0---0----3---3---3---3---
D----3---3---3---3--------------------3---3---3---3---
A--0-------0-----------2-------2----0-------0---------
E------0-------0---3-------3------------0-------0-----

E-----2---2---2---2--------------------2---2---2---2--
B-----3---3---3---3----3---3---3---3---2---2---2---2--
G-----4---4---4---4----3---3---3---3---0---0---0---0--
D----------------------3---3---3---3------------------
A--2--------2--------0-------0-----------2-------2----
E-------2-------2--------0-------0---3-------3--------

E----2---2---2---2------------------------------------
B----3---3---3---3---3--------------------------------
G----2---2---2---2---3--------------------------------
D--0-------0---------3--------------------------------
A------0-------0-----0--------------------------------
E-----------------------------------------------------


Ahora ella va a dos mil por hora por la vida

pisa el freno solo para sus dos crios

el supo hacerse mas compañero del frio

ese que le hacia sangrar por la herida


ahora lo mismo que las estrofas anteriores

E---2---2---2---2---2---2---2---2---2-
B---3---3---3---3---3---3---3---3---3-
G---2---2---2---2---2---2---2---2---4-
D---------0-------0-------0-----------
A-----0-------0-------0-------4---2---
E-------------------------------------

E---2---2---2---2---2---2---2-----
B---3---3---3---2---2---2---2-----
G---4---4---4---0---0---0---0-----
D---------------------------------
A-----2-----------2-------2-------
E-2-------2---3-------3-----------

si hoy la descrifo digo profeta Mahoma

una vez hecho un trato ya lo consiguio

y el adquirio una gran filosofia de goma

y zapatos baratos eso lo cambio

rasguido
Em                   G
ninguno de los dos creia en el destino
D                            A
y este se vengo para hacerse notar
Em                   G
les va poniendo mas piedras en el camino
     D
pero lo yo juro fui el testigo
       Bm                   Em
de esa magia que ellos seguiran
A                       D
compartiendo eternamente
D          G            A
entre el tedio y la pasion
D          G         A
el instinto y la razon
      D          G           Bm             A
entre la perseverancia y la cruel resignacion
    D              G           Bm
esa magia que nos los va dejar ser
      A             G         A
nunca los va dejar ser

dos amantes del monton.


E---2---------2-----------2---------2----2-
B-----3---3-----3---3------3---3----3----3-
G------02--------02---------02------2----2-
D-0---------0----------0---------0---------
A---------------------------------------4--
E------------------------------------------

E----2-------2--------2---2--
B-----3--3----3--3----2---2--
G------4-------4------0---0--
D----------------------------
A---2--------2---------------
E-------------------3--------



E----------------------2/3/2--------------0-----------3--
B--------------------3-------3----------2---2---------2--
G------------------2-----------2------0-------0-------3--
D------0-----0---0------------------2-----------2-----0--
A--0-2---0-2---2------------------0---------------0------
E--------------------------------------------------------

hola a todos los fanaticos de las pastillas del abuelo,
me llamo charlie y
espero que les guste mi transcripcion la cual es la primera,
le mando un saludo a mi hermano gaby que me hizo escuchar
este grupo, al gordo y a pocho!!!
aguante las pastillas!!!Fuente: Tus acordes