a b c d e f g h i j k l m n o p q r s t u v w x y z 0-9

El Enano

Las Pastillas Del Abuelo

			
Intro


1)


        D             Am G    D
e|-------2h3h2---------0---0--2------------|
B|-------------3-------1---2--3------------|
G|---------------2-----2---2--2------------|
D|-0---0-------------0--------0------------|
A|-----------------------------------------|
E|-----------------------3-----------------| x2



2)


     D         Am C         G   D
e|--------------------------------------------------------|
B|-------3-----1--1-----1-----3-3-------------------------|
G|---0h2---2---2--2-0h2---2---0-2-------------------------|
D|-0----------------------------0-------------------------|
A|-----------0----3---------------------------------------|
E|--------------------------3-----------------------------| x4



2)
No se quema con basura,
siempre algo hay en su galera,
vive loco en su cordura
y siente más que cualquiera.

Su droga es vivir a pleno,
se pica con humildad,
fuma consejos ajenos
y aspira sinceridad.

Bm       A                  G
La vida lo educó a los bastonazos
Bm         A           G
y a veces la muerte también,


     D                         A
tuvo como profesor a un diablo bien pirata que
          Bm                          G
le enseñó que la vida no siempre es ganar.
             D           A
El lo aprendió, lo masticó y por fin
         G
supo llorar...


2)
Y un bobo muerde el anzuelo,
ese que te hace olvidar
con un dolor por consuelo
y cree que muerde caviar.

Pero este enano demente
sabe que la papa está
en no preguntar por el morfi
sino en comer y disfrutar.


Bm       A                  G
La vida lo educó a los bastonazos
Bm         A           G
y a veces la muerte también,

   D                       A
tuvo como profesor a su ángel de la guarda que
          Bm                             G
le enseñó que un fracaso no siempre es perder.
          D              A
El lo aprendió, lo masticó y por fin
      G
supo reír...
D
Y hoy el diablo y aquel ángel
         A
ven al pequeño saltamontes
        Bm                          G
romper paredes con el bocho una vez más.
    D                         A                            G
Van a brindar, por lo que fue su mayor creación de integridad.Fuente: Tus acordes