a b c d e f g h i j k l m n o p q r s t u v w x y z 0-9

Calipso

Las Pastillas Del Abuelo

			
Las Pastillas Del Abuelo
Calipso

Parte 1
       A                 G        
e|--------------|-----------------------------------
B|------2-2-----|----0-0----------------------------
G|------2-2-----|----0-0----------------------------
D|----------2---|--------0--------------------------
A|---0--------0-|------------0----------------------
E|--------------|-3--------3------------------------

Parte 2
         C               A             C          A
e|--------------|----------------|------------|--------
B|---------1-1--|--------2-2-----|----1-1-----|---2-2--
G|---------0-0--|--------2-2-----|----0-0-----|---2-2--
D|---0----------|----------------|------------|--------
A|-------3------|-3-2-0-------0-2|-3-------3-2|-0------
E|-----3--------|----------------|------------|--------

Fuente: tusacordes.com