a b c d e f g h i j k l m n o p q r s t u v w x y z 0-9

Calipso

Las Pastillas Del Abuelo

			
Bueno aca les dejo una tablatura de caliso exelente tema de las pastillas


  A              G
1--------------------------------
2----55---5---------33---3-------
3----66---6---------44---4-------
4--------------------------------  X4 intro
5-------7--------------5---------
6--5--------5s3---3--------3s5---

1

   A              G
1--------------------------------
2----55---5---------33---3-------
3----66---6---------44---4-------
4-------------------------------- X4 canta la estrofa de abajo
5-------7--------------5---------
6--5--------5s3---3--------3s5---

Una vez más siento la necesidad
De respirarte en los ambientes más oscuros
De desafiar las leyes de la gravedad
Falsa alegría cambiada por tu cianuro.

2

  C             A
1------------------------------
2---11---1---1-----22---2---2--
3---00---0---0-----22---2---2--
4------------------------------  X3  canta la estrofa de abajo
5-3--------3----0---------0----
6------3--------------0--------

Necesidad de unirme al ghetto
De los que apelan a besarte
En escondites bien secretos

3

  D
1---2-2-2-2-2-2-2-2--
2---3-3-3-3-3-3-3-3--
3---------------2-2-- X1
4-0------------------
5--------------------
6--------------------

Con la locura como estandarte.

4 ESTRIBILLO

Fm#                   Bm
No te permito que me saques todo el hambre      Conviene tocarla
Fm#                       Bm                 con cejilla para ir
Que me acostumbres a atar todo con alambre    cortando el sonido.
G                        A
Me das mil canciones de buena madera.
                                                G      G  G
1------------------------------------------------------3---
2------------77-------77--------77---------77-----33---3---
3------------77-------77--------77---------77-----44---4---
4-------0----------------------------------------------5---
5-----------------4------------------------------------5---
6---------------------------7---------5---------3------3---
   Cualquier estación para mi es primavera con vos?

G              A
Pero cuando te vas?
      D                   G                A
Me dejas con la más dulce pena matándome adentro
       D                G                  A
y un otoño vacío en el centro que solo se llena
             G                        A
con un poco más de tú esencia en las venas.

1

Me pongo goma, me pongo parlanchín
voy rebotando de Argentina hasta Japón
me cuelgo con historias que no tienen fin
y me preocupo por problemas sin solución.

2

Voy escuchando dancing move,
la sonrisa de oreja a oreja
es un problema de actitud.

3

y ahora los dejo pensando con esta moraleja

4

"ponete bien si no hay quien salte y no hay un cobre
que de esta miel mejor que falte y no que sobre"
me das mil canciones de buena madera

cualquiera estación para mi es primavera con vos
pero cuando te vas

me dejas con la más dulce pena matándome adentro
y un otoño vació en el centro que solo se llena
con un poco mas de tu esencia en las venas.

123 sin cantar.

4

Que algo tan lindo me haga mal es una pena
me haces poner una de cal veinte de arena
me das mil canciones de buena madera.

cualquiera estación para mi es primavera con vos
pero cuando te vas

me dejas con la mas dulce pena matándome adentro |
y un otoño vació en el centro que solo se llena  | X2
con un poco mas de tu esencia en las venas.      |

1 Hasta que termina.

Fuente: tusacordes.com