a b c d e f g h i j k l m n o p q r s t u v w x y z 0-9

Cutral-co

Las Manos De Filippi

			
Intro
G|-------|--------------|
D|-------|--------------|
A|-------|--------------|
E|---0---|-0--3-1-2-3-4-|
 |4 Veces|  12   Veces  |

Verso
G|--------------|x12
D|--------------|
A|--------------|
E|-0--3-1-2-3-4-|

Coro  **2 Veces**
G|--------------|------------|--------------|----------------|
D|--------------|------------|--------------|--------33---33-|
A|--------------|------------|--------------|----------------|
E|-0--3-1-2-3-4-|-0--3-1-2-1-|-0--3-1-2-3-4-|-0--3-1----1----|

Verso
G|--------------|x12
D|--------------|
A|--------------|
E|-0--3-1-2-3-4-|

Coro  **4 Veces**
G|--------------|------------|--------------|----------------|
D|--------------|------------|--------------|--------33---33-|
A|--------------|------------|--------------|----------------|
E|-0--3-1-2-3-4-|-0--3-1-2-1-|-0--3-1-2-3-4-|-0--3-1----1----|

Puente **2 Veces**
G|--------------|--------------|
D|--------------|--------------|
A|--------------|--------------|
E|-0--3-1-2-3-4-|-0--3-1-2-3/x-|

Final
G|-------|x2
D|-------|
A|-------|
E|---0---|

 **YO ME LA BAJE INCOMPLETA LA CANCIÓN, Y SE CORTA AHI, PERO SUPONGO
   QUE MUCHO MAS NO SIGUE**

Escuchá la canción para saber el ritmo

Fuente original ATAME [www.atame.org]
Colaborador original: Sebastián Vidondo [rojoamargodelsiglo@yahoo.com.ar]

Fuente: tusacordes.com