a b c d e f g h i j k l m n o p q r s t u v w x y z 0-9

Zafar

La Vela Puerca

Am
D
G
			
MADE IN EL OESTE:
FAKU_XDIOSERO facuargentina1@hotmail.com
****************************************************************
ls notas c tocan como aparece aca..NO EN RESGUIDO,...y aguant el ROCK
           AmAm
E/-----------------------------------------
B/----------1--------1-----------------------
G/-------2---------2------------------------
D/----2----------2---------------------------
A/--0----------0----------------------------
E/-----------------------------------------
             DmD
E/---------1---------------------------------
B/-------3-------------------------------------
G/-----2---------------------------------------
D/---0-----------------------------------------
A/------------------------------------------
E/-----------------------------------------
D/
              GG
E/------------------------------------------
B/--------------------------------------------
G/--------0------------------------------------
D/------0--------------------------------------
A/----2--------------------------------------
E/--3---------------------------------------

Am                     Dm               G
 Soy de la ciudad con todo lo que ves
con su ruido, con su gente consume vejez
y no puedo evitar, el humo que entra hoy
pero igual sigo creciendo soy otro carbón
no voy a imaginar, la pena en los demás
compro aire y si es puro pago mucho mas
no voy a tolerar, que ya no tengas fe
que se bajen los brazos que no haya lucidez.
             Am
Me voy,
Dm                G
volando por ahí
             Am
y estoy,
Dm                G
convencido de ir
me voy,
silbando y sin rencor
y estoy,
Dm          G
zafando del olor

cuando empieza ?...Me voy...? el saxo hace un
 pekeño acompañamiento q dura todo el estribillo:

e/-----------------------------------------------------------
B/--5---5/6------3-5----5/6--3----5---5/6------3-5----5/6--3-
G/----5-----5--5------5--------5----5-----5--5------5--------
D/-----------------------------------------------------------

aca entra la 2da gtarra haciendo acordes tipo ska q son las mismas
notas q en toda la cancion, se tokan de abajo hacia arriba y
se hacen sonar unikamente las 3 primeras cuerdas

    Am   Dm     G el sol tmb se puede tocar asi
e/--5-----5-----3---                        --7--
B/--5-----6-----3---                        --8--
G/--5-----7-----4---                        --7--
D/--7-----7-----5---
A/--7-----5-----5---
E/--5-----5-----3---

Me encontré con la gente que sabe valorar,
que, de turista en la Capital, ha sabido vagar,
y no ha encarado, al fin, la cruda realidad
de respirar hollín, de llorar alquitrán.
Y empiezo a envejecer, sudando mi verdad,
criado pa' toser, con mucha variedad;
y adónde ir a parar, cargando con mi olor;
deberíamos andar desnudos pa' sentirnos mejor.

Me voy, volando por ahí,
y estoy convencido de ir;
me voy, silbando y sin rencor,
y estoy zafando del olor.

este es el solo de vientos para guitarra:

e/--12--10-8-7-8-7------------7-8--8-10-8--7-13-12-10-10h12-12-
B/------------------8-5--5/6-----------------------------------
G/-------------------------------------------------------------
D/-------------------------------------------------------------

e/--10-12-15---13-12-10-13-12-----------17-15-10-12-12--
B/-----------------------------13-12-13-----------------
G/------------------------------------------------------
D/------------------------------------------------------

e/--10-8-7---8--8-7-5---8-7--------------1p0---1-3-
B/--------10----------8-----8-5---3----------3-----
G/----------------------------------0-2------------
D/-------------------------------------------------

e/---------5-8-7-------7--8-10/12-10--7-8-10--12-15-13-12-
B/--5-6-8---------8-10-------------------------------------
G/---------------------------------------------------------
D/---------------------------------------------------------

e/--17---15---17-
B/---------------

Fuente: Lacuerda