a b c d e f g h i j k l m n o p q r s t u v w x y z 0-9

Zafar

La Vela Puerca

			
1-0-----------------------------------------0-------0-----------
2---3-1-0-1---1-0---------1-1-1---1-1-1-------3-1-3---3---------
3-----------------2-0-0---------2-------2-----------------------
4---------------------------------------------------------------
5---------------------------------------------------------------
6---------------------------------------------------------------

1-0-----------------------------------------0-------0-----------
2---3-1-0-1---1-0---------1-1-1---1-1-1-------3-1-3---3---------
3-----------------2-0-0---------2-------2-----------------------
4---------------------------------------------------------------
5---------------------------------------------------------------
6---------------------------------------------------------------

1-0-----------------------------------------0-------0-----------
2---3-1-0-1---1-0---------1-1-1---1-1-1-------3-1-3---3---------
3-----------------2-0-0---------2-------2-----------------------
4---------------------------------------------------------------
5---------------------------------------------------------------
6---------------------------------------------------------------

Fuente: tusacordes.com