a b c d e f g h i j k l m n o p q r s t u v w x y z 0-9

Zafar

La Vela Puerca

			
la primera estrofa y el primer estribillo no llevan bajo

segunda estrofa
G-----------------------------------------------------------------|
D-7-------7---------------5-----5-7-------7---------------5---5---|
A-------------7---5-----5---------------------7---5---5-----------|
E-----------------------------------------------------------------|

G-----------------------------------------------------------------|
D-7-------7---------------5-----5-7-------7---------------5---5---|
A-------------7---5-----5---------------------7---5---5-----------|
E-----------------------------------------------------------------|

G-----------------------------------------------------------------|
D-7-------7---------------5-----5-7-------7---------------5---5---|
A-------------7---5-----5---------------------7---5---5-----------|
E-----------------------------------------------------------------|

G-----------------------------------------------------------------|
D-7-------7---------------5-----5-7-------7---------------5---5---|
A-------------7---5-----5---------------------7---5---5-----------|
E-----------------------------------------------------------------|

segundo estribillo
G-----------------------------------------------------------------|
D-7-----------7-----------5-----5-7-----------7-----------5-----5-|
A---------7-------5-----5-----------------7-------5-----5---------|
E-----------------------------------------------------------------|

G-----------------------------------------------------------------|
D-7-----------7-----------5-----5-7-----------7-------------------|
A---------7-------5-----5-----------------7-------5-----/-10------|
E-----------------------------------------------------------------|

parte instrumental
G-----------------------------------------------------------------|
D---------7-------------------------------7---------------5-------|
A-----7-------7---5---5---------------7-------7---5---5-------5---|
E-5-----------------------3---3---5-------------------------------|

G-----------------------------------------------------------------|
D---------7-------------------------------7---------------5~------|
A-----7-------7---5---5-/-10--10------7-------7---5-----5---------|
E-5-------------------------------5-------------------------------|

G-----------------------------------------------------------------|
D---------------------------------------------------------5-------|
A-----3---5-------5---------------0---3---5---7---5---5-------5---|
E-5-----------5-------5---3---0-----------------------------------|

G-----------------------------------------------------------------|
D-----------------------------------------------------------------|
A-----3-------7---5---------------0---3---5---7---5-----/-10------|
E-5-------5-----------5---3---0-----------------------------------|

tercera estrofa
G-----------------------------------------------------------------|
D-7-----------------------5-------7-----------------------5-------|
A-----------------5-------------------------------5---------------|
E-----------------------------------------------------------------|

G-----------------------------------------------------------------|
D-7-----------------------------------------------------------5---|
A-----------------5------10-------12/0---silencio---------------|
E-----------------------------------------------------------------|

G-----9-------------------------------9---------------------------|
D-7-------7---------------5-----5-7-------7---------------5---5---|
A-------------7---5-----5---------------------7---5---5-----------|
E-----------------------------------------------------------------|

G-----9-------------------------------9---------------------------|
D-7-------7---------------5-----5-7-------7---------------5---5---|
A-------------7---5-----5---------------------7---5-----5---------|
E-----------------------------------------------------------------|

último estribillo
G-----------------------------------------------------------------|
D-7-----------7-----------5-----5-7-----------7-----------5---5---|
A---------7-------5-----5-----------------7-------5-----5---------|
E-----------------------------------------------------------------|

G-----------------------------------------------------------------|
D-7-----------7-----------5-----5-7-----------7-------------------|
A---------7-------5-----5-----------------7-------5---------------|
E---------------------------------------------------------3-------|

G-----------------------------------------------------------------|
D-----------------------------------------------------------------|
A-----7---5-------5---------------0---3---5---7---5---5-/-10--5---|
E-5-----------5-------5---3---0-----------------------------------|

G-----------------------------------------------------------------|
D-----------------------------------------------------------------|
A-----7---5-------5---5---------------7---5-------5~--------------|
E-5-----------5-----------3---3---5-----------7-----------3~------|

G--------|
D--------|
A--------|
E-5~~~---|


www.purevolume.com/synopsys

Fuente: tusacordes.com