a b c d e f g h i j k l m n o p q r s t u v w x y z 0-9

Voy A Bailar A La Nave Del Olvido

La Renga

G
D
C
Em
C#
			
 G            D
Hoy voy a bailar
G               D
a la nave del olvido
G             D
olvido mi gotera
G                 D
y mi racion criminal
C                             G
Perfumes baratos, ambientes picados
C                              D
discos rayados, ya quiero despegar.


Hoy voy a bailar a la Nave del Olvido,
olvido mis hermanos, y estampitas de estacion.
Veni morocha que vamos a dar
una vuelta al chaperio.

C                             G
La Perito esta desierta y la luna
            D                 Em 
que se ha posado sobre los techos.
D - C - C# - D        G
               De pompeya.



Hoy voy a bailar,
a la nave del olvido,
olvido a mis hermanos, yea, 
y mi racion criminal.
Zapatos embarrados, vuelvo algo mareado
esquivando charcos no logro despertar.
La Perito sigue desierta y el Sol 
que hizo invisible a la luna.
La Perito sigue desierta y el Sol 
que se ha posado sobre los techos.


Pequeño yeite que hace después del D

Si se utilizan acordes comunes [sin cejilla] 


|-----------3--|----------------------------------------------------------------
|-----------0--|----------------------------------------------------------------
|-----------0--|----------------------------------------------------------------
|--4--2--0--0--|----------------------------------------------------------------
|-----------2--|----------------------------------------------------------------
|-----------3--|----------------------------------------------------------------
                                                                                

Si se utilizan los llamados power chords [acordes con cejilla]


            G                                                                   
|------------3--|---------------------------------------------------------------
|------------3--|---------------------------------------------------------------
|------------4--|---------------------------------------------------------------
|------------5--|---------------------------------------------------------------
|--9--7--5---5--|---------------------------------------------------------------
|------------3--|---------------------------------------------------------------
                                                                                


EXPLICACIONES

p: pulsar con dedo de la mano derecha la nota que se indica.
H: golpear, [hammer].

Este es el primer solo, no esta completamente bien pero suena.


--------------------------------------------------------------------------------
------------------------------------------------------12~~~--12--14--15--15-----
11--11--9-------------------9--11--11--11--11--9--------------------------------
-----------12--9~~~--9--12------------------------12----------------------------
--------------------------------------------------------------------------------
--------------------------------------------------------------------------------

                                                                                
---------------------------------------|----------------------------------------
10--12--10--9--10---------------------|----------------------------------------
--------------------11h12p11--9--7-----|----------------------------------------
------------------------------------9--|----------------------------------------
---------------------------------------|----------------------------------------
---------------------------------------|----------------------------------------
                                                                                

                                                                                
17--15--14--15-----17--15--14--15--14--12------|--------------------------------
-------------------------------------------15--|--------------------------------
-----------------------------------------------|--------------------------------
-----------------------------------------------|--------------------------------
-----------------------------------------------|--------------------------------
-----------------------------------------------|--------------------------------
                                                

Fuente: tusacordes.com