a b c d e f g h i j k l m n o p q r s t u v w x y z 0-9

Voy A Bailar A La Nave Del Olvido

La Renga

			
Este es el segundo solo, lo pongo porque nadie lo habia sacado


e--------------------------------------------------
b----10--------------------------------------------
g----12b--/14-12-10----------------------10-12-10~-
D-------------------12~----10-12-10~--/12----------
A-----------------------/12------------------------
E--------------------------------------------------

---------------------------------------------------
----15-12---19t-12-15-19t-12-15-19t-12-15-19t-12-15
/14------14----------------------------------------
---------------------------------------------------
---------------------------------------------------
---------------------------------------------------

e-----------------------------------------------10--------------10-10---10-10-13-10~--
b-13b15r13-10-12-13-12-10-----------------------10-10--10----/12----------------------
g--------------------------12-10----------10-12b---12b-12b----------------------------
D-------------------------------12~---/12---------------------------------------------
A-------------------------------------------------------------------------------------
E-------------------------------------------------------------------------------------

e-----10-10-13-10------10-17b19r17----------------17b19r17--------------------------------
b--/12-------------/12-------------17b19r17-15-------------17b19r17-15----15-17b-17b19r17-
g----------------------------------------------16----------------------16-----------------
D-----------------------------------------------------------------------------------------
A-----------------------------------------------------------------------------------------
E-----------------------------------------------------------------------------------------

e------------------------------------17-------------------------------------------------
b---15----15----15-17b19r17-15----15-20b22r20-20-19-17-15-14-12-10----------------------
g------16----16----------------16----------------------------------12-10----------------
D------------------------------------------------------------------------12----10-12~---
A---------------------------------------------------------------------------12----------
E---------------------------------------------------------------------------------------

b-bending
r-release
t-tapping
/slide
~vibrato

Cualquier duda escribanme

Fuente original ATAME [www.atame.org]
Colaborador original: Gerardo [yiyodiaz77@hotmail.com]

Fuente: tusacordes.com