a b c d e f g h i j k l m n o p q r s t u v w x y z 0-9

Voy A Bailar A La Nave Del Olvido

La Renga

			
Intro: G D + Riff 1

G             D Riff 1  G                D  Riff 1
Hoy voy a bailar,         a la nave del olvido
G            D  Riff 1  G               D   Riff 1
olvido mi gotera          y mi ración criminal
C                              G
Perfumes baratos, ambientes picados
C                               D
discos rayados, ya quiero despegar.

 Riff 1                           Riff 2
e|--------2------------------3--| |---------------------------2--|
B|--------3------------------0--| |--------2------------------3--|
G|--------2------------------0--| |--------2------------------2--|
D|-0-------------4---2---0---0--| |--------2------------------0--|
A|---------------------------2--| |-0-------------4---2---0------|
E|---------------------------3--| |------------------------------|

 Riff 3                                          Riff 4
e|------10----------------10--7---5---3--------| |-------9------9-10-9---10-9----|
B|---------------------------------------------| |-------------------------------|
G|--7/11----11--11-7----11---7---5--4---4-4----| |--8--9--9--9----------9-----9--|
D|---------------------------------------------| |-------------------------------|
A|---------------------------------------------| |-------------------------------|
E|---------------------------------------------| |-------------------------------|

D             A Riff 2  D                A  Riff 2   
Hoy voy a bailar,         a la nave del olvido,           
D              A  Riff 2D                     ARiff 2
olvido mis hermanos,      y estampitas de estación
G                         D Riff 3  G                   A Riff 4
Vení morocha que vamos a dar,         una vuelta al chaperío
G                               D
la Perito está desierta y la luna 
             A             Bm     A G
que se ha posado sobre los techos    
G G# A      D
     de Pompeya.

 --------------                                           
|1er. SOLO 1:53|                                          
 --------------                                           
  D                   A                   D               
e|-------------------|-------------------|-------------------|
B|-------------------|-------------------|-------------------|
G|---9b-9b---9br9p7--|-9--------------7--|9b--9b---9br9p7----|
D|-------------------|----7~~~~~-7h9-----|-------------------|
A|-------------------|-------------------|-------------------|
E|-------------------|-------------------|-------------------|

  G                        D                            A
e|---7---7--7---7--9--10--|-10p9-----------------------|-----------------12--|
B|------------------------|-------10---10--10b---10--9-|-10-----------------|
G|------------------------|----------------------------|-----11--12--11------|
D|------------------------|----------------------------|---------------------|
A|------------------------|----------------------------|---------------------|
E|------------------------|----------------------------|---------------------|

  Bm                            G                                     A
e|----10---------15b----15--13-|-15-15b---15--13-15------------------|--------------|
B|-----------------------------|---------------------15p13-13h15p13--|--------------|
G|-----------------------------|-------------------------------------|-14~~~~~------|
D|-----------------------------|-------------------------------------|--------------|
A|-----------------------------|-------------------------------------|----------0h2-|
E|-----------------------------|-------------------------------------|--------------|

D             A Riff 1     D                A  Riff 1
Hoy voy a bailar,            a la nave del olvido
D               ARiff 1    D               A   Riff 1
olvido a mis hermanos, yeah, y mi ración criminal
G                                   D
Zapatos embarrados, vuelvo algo mareado
G                                  A
esquivando charcos no logro despertar

G                              D
La Perito sigue desierta y el sol
             A          Bm   A G
que hizo invisible a la luna
G G# A      D
     de Pompeya.

 ------------                                           
|2º SOLO 3:14|                                          
 ------------  
  D          A                    D                    A
e|----------|--------------------|--------------------|---------------------10-------|
B|-------10b|~~~~----------------|--------------------|-----6h8-6--/10---------13p10-|
G|-------12b|~~~~------12br-10b--|-------------5h7-5--|-/7---------------------------|
D|----------|--------------------|----12-/7----------|------------------------------|
A|----------|--------------------|--------------------|------------------------------|
E|----------|--------------------|--------------------|------------------------------|
  D                                                       A
e|-----13p10--10h13p10--10h13p10--10h13p10--10h13p10--10-|--------------------------------|
B|----------10--------10--------10--------10--------10---|-12br---10h12-13p12p10----------|
G|-------------------------------------------------------|----------------------12-10--12-|
D|-------------------------------------------------------|--------------------------------|
A|-------------------------------------------------------|--------------------------------|
E|-------------------------------------------------------|--------------------------------|
                                  mantiene estiradala 3er cuerda
  D                             A |_________________|     G
e|-----------------------------|-------------------------|------------------------|
B|-----------------------------|---13-13--13---13--13----|----15-15---17b--15-----|
G|-----10b------------7-----7--|12b--1212-1212-14/16--------16--------/16-|
D|-----------12--7/9-----9-----|-------------------------|------------------------|
A|-----------------------------|-------------------------|------------------------|
E|-----------------------------|-------------------------|------------------------|
  G                              D                   D
e|---------------------------17b|r---------------17b|r---------------------|
B|-----15-15-17b---15/-----15---|--17b--17-15-------|--17br--15-----15-17b-|
G|--------------------16-------|--------------16---|-----------16---------|
D|------------------------------|-------------------|----------------------|
A|------------------------------|-------------------|----------------------|
E|------------------------------|-------------------|----------------------|
  G                              G                   A
e|------------------------------|------------13-15b-|--15-13---------------|
B|-------17br-p15---15-----17b--|-17br17-15--------|--------15-13-12-10---|
G|---------------16------16-----|-------------------|--------------------12|
D|------------------------------|-------------------|----------------------|
A|------------------------------|-------------------|----------------------|
E|------------------------------|-------------------|----------------------|
  A
e|-----------------------------------|
B|-----------------------------------|
G|----10---9---7---------7---7---7---|
D|-----------------7h9---------------|
A|-----------------------------------|
E|-----------------------------------|

G                              D
La Perito sigue desierta y el sol
             A             Bm     A G
que se ha posado sobre los techos
G G# A      D
     de Pompeya.

---------------------------------------------------
| /: deslizar  slide                            |
| h: ligado ascendente hammer on                |
| p: ligado descendente pull off                |
| b: estirar cuerda bend                        |
| br: estirar cuerda y volver su posición original|
| ~:vibrato                                       |

Fuente original ATAME [www.atame.org]
Colaborador original: Anonimo

Fuente: tusacordes.com